Log in

One click and you are in

Login with Facebook Login with Google

Why sign up and log in

Guitar Tabs Explorer
Say Hi To Your Mom bass tabs for Lets talk about space ships

Lets Talk About Space Ships bass tab - Say Hi To Your Mom

Say Hi To Your Mom bass tabs for Lets talk about space ships

Bass tabs

Say Hi to your Mom - Let's talk about spaceships


Intro

G|-----------------------------------| x 4
D|-----------------------------------|
A|--5-5-5-5-5-5-5-5-5-5-5-5-5-5-5-5--|
E|-----------------------------------|

Verse x 2

G|----------------------------------------------------| x 2
D|----------------------------------------------------|
A|--/10-10-10-10-10-10-10-10-10-10-10-10-10-10-10-10--|
E|----------------------------------------------------|

E|-----------------------------------| x 2
A|-----------------------------------|
D|--5-5-5-5-5-5-5-5-5-5-5-5-5-5-5-5--|
G|-----------------------------------|


Chorus
G|------------------------------------------------|
D|------------------------------------------------|
A|--2--2--0----------------5--5--5----------------|
E|------------3--3-3--3-3------------5--5-5--5-5--|

G|----------------------------------------------------|
D|----------------------------------------------------|
A|--2--2--0----------------5--5--5--------------------|
E|------------3--3-3--3-3------------5--5-5--5-5--3---|


Intro


Verse


Bridge

G|---------------------------------------------------------|
D|---------------------------------------------------------|
A|--5--------5--------------------------5--------5---------|
E|--------------------3--------3---------------------------|


Chorus


End on

G|--------|
D|--------|
A|--5-----|
E|--------|

Almost there ...

Sign in to get your own page with links to favourite songs and more. You are just one click away...

Login with Facebook Login with Google