Search tabs and chords

Search for song, artist or band

Log in

One click and you are in

Login with Facebook Login with Google

Why sign up and log in

Guitar Tabs Explorer
Say Hi guitar tabs for Green with envy acoustic

Guitar tabs with lyrics

Tuning: Standard (E chord diagramEE A chord diagramAA D chord diagramDD G chord diagramGG B chord diagramBB E chord diagramEE)

Intro:

e|---x----x--x-----x--x----x--x---x-x--x-x----x-x----x-x----x-x--x-x---------------------------|
B|---x----x--x-----x--x----x--x---x-x--x-x----x-x----x-x----x-x--x-x---------------------------|
G|---x----x--x-----x--x----x--x---x-x--x-x----x-x----x-x----x-x--x-x---------------------------|
D|---x----x--x-----x--x----x--x---x-x--x-x----x-x----x-x----x-x--x-x---------------------------|
A|---10---10-10----10-10---10-10--9-9--7-7----7-7----7-7----7-7--9-9---------------------------|
E|---8----8--8-----8--8----8--8---7-7--5-5----5-5----5-5----5-5--7-7---------------------------|  x2

Verse 1:

C chord diagramCC             G chord diagramGG                Am chord diagramAmAm                  F chord diagramFF                      C chord diagramCC
Im green with envy when you're making your eyes at him is it ever gonna end
                  G chord diagramGG                  Am chord diagramAmAm                       F chord diagramFF
And I'm green with envy with you're cooking him breakfast and I'm on my own
Am chord diagramAmAm             F chord diagramFF
And I'm on my own

Chorus:

C chord diagramCC                           G chord diagramGG                Am chord diagramAmAm
I should have been a better better lover to you yeah
F chord diagramFF
lover to you yeah yeah
C chord diagramCC                           G chord diagramGG                Am chord diagramAmAm
I should have been a better better lover to you yeah
F chord diagramFF
lover to you yeah yeah
Am chord diagramAmAm       F chord diagramFF
lover to you
Am chord diagramAmAm       F chord diagramFF
lover to you

Instrumental:
e|---x----x--x-----x--x----x--x---x-x--x-x----x-x----x-x----x-x--x-x---------------------------|
B|---x----x--x-----x--x----x--x---x-x--x-x----x-x----x-x----x-x--x-x---------------------------|
G|---x----x--x-----x--x----x--x---x-x--x-x----x-x----x-x----x-x--x-x---------------------------|
D|---x----x--x-----x--x----x--x---x-x--x-x----x-x----x-x----x-x--x-x---------------------------|
A|---10---10-10----10-10---10-10--9-9--7-7----7-7----7-7----7-7--9-9---------------------------|
E|---8----8--8-----8--8----8--8---7-7--5-5----5-5----5-5----5-5--7-7---------------------------|  x2

Verse 2:

C chord diagramCC              G chord diagramGG                   Am chord diagramAmAm                         F chord diagramFF
I'm an ostrich with my head in the sand I'm a cuckhold with a thumb in my ear
C chord diagramCC                  G chord diagramGG                   Am chord diagramAmAm                 F chord diagramFF
He's a lucky lucky man on the verge of squandering it too
Am chord diagramAmAm             F chord diagramFF
squandering it too

Chorus:

C chord diagramCC                           G chord diagramGG                Am chord diagramAmAm
I should have been a better better lover to you yeah
F chord diagramFF
lover to you yeah yeah
C chord diagramCC                           G chord diagramGG                Am chord diagramAmAm
I should have been a better better lover to you yeah
F chord diagramFF
lover to you yeah yeah
Am chord diagramAmAm       F chord diagramFF
lover to you
Am chord diagramAmAm       F chord diagramFF
lover to you

Outro:

C chord diagramCC
I dont like this dream
G chord diagramGG
I don't like this dream
Am chord diagramAmAm
I miss you calling my name
F chord diagramFF
I miss you calling my name
C chord diagramCC
I dont like this dream
G chord diagramGG
I don't like this dream
Am chord diagramAmAm
I miss you calling my name
F chord diagramFF
I miss you calling my name



************************************

| x  Dead note

************************************

Other versions of Green With Envy Acoustic

Green with envyChords

Almost there ...

Sign in to get your own page with links to favourite songs and more. You are just one click away...

Login with Facebook Login with Google