Log in

One click and you are in

Login with Facebook Login with Google

Why sign up and log in

Guitar Tabs Explorer
Alexandra Savior guitar tabs for Saving grace

Guitar tabs with lyrics

Tuning: Standard (E A D G B E)


Intro:

e|---------------------------------------------------------------------------|
B|---------------------------------------------------------------------------|
G|---------------------------------------------------------------------------|
D|-----0----------------------0----------------------------------------------|
A|-0-2---0---------------0-2----0--------------------------------------------|
E|---------3-0-2-3-0--------------3-0-2-3-2-2-3-2-0--------------------------|

x2
Verse 1:

Saving grace

Come here to betray me again


Verse 1:

e|---------------------------------------------------------------------------|
B|---------------------------------------------------------------------------|
G|---------------------------------------------------------------------------|
D|---------------------------------------------------------------------------|
A|---------------------------------------------------------------------------|
E|-0--2-3-2-2-3-2-0----------------------------------------------------------|

She'd never say a thing

That she don't mean again

e|---------------------------------------------------------------------------|
B|---------------------------------------------------------------------------|
G|---------------------------------------------------------------------------|
D|---------------------------------------------------------------------------|
A|---------------------------0-2-2-2-2-2-2-----------------------------------|
E|-0-2-3-0--------------------------------0----------------------------------|


Verse 2:

I'm waiting here for the lioness to come

And have a feast

I cannot say that it is a place that I

Have run near


Verse 2:

e|---------------------------------------------------------------------------|
B|---------------------------------------------------------------------------|
G|---------------------------------------------------------------------------|
D|---------------------------------------------------------------------------|
A|-2/7-7-0-5-0-5\3-0-3\2-2/5\2-2-3-2-0-0-2-3-2-------------------------------|
E|---------------------------------------------------------------------------|

this part is repeated twice and the second part has this part added to it:

e|---------------------------------------------------------------------------|
B|---------------------------------------------------------------------------|
G|---------------------------------------------------------------------------|
D|---------------------------------------------------------------------------|
A|-2-2-2-0-------------------------------------------------------------------|
E|---------2-3-0-------------------------------------------------------------|

First verse is repeated during this verse as well as the second verse part as an instrumental after:


Verse 3:

Saving grace

Come here to petrify me

She's not an angel, my dear

She is a beast


Bridge:

e|---------------------------------------------------------------------------|
B|---------------------------------------------------------------------------|
G|---------------------------------------------------------------------------|
D|---------------------------------------------------------------------------|
A|-2-0-3-0-2-2-0-2-3-2-----2-0-3-3\1-2-0-2-3-2-------2-2-2-2-2-2-------------|
E|---------------------0-----------------------0----------------0------------|


The rest can pretty much be figured out by the rest of this tab as well :)


Verse 4:

Saving grace

Come here to take you from me again

She'd never say a thing

That she don't mean again


Outro:

Saving grace

Saving grace

Saving grace

Saving grace


************************************

| /  Slide up
| \  Slide down

************************************

Almost there ...

Sign in to get your own page with links to favourite songs and more. You are just one click away...

Login with Facebook Login with Google