Log in

One click and you are in

Login with Facebook Login with Google

Why sign up and log in

Guitar Tabs Explorer
Savages bass tabs for No face

Bass tabs with lyrics

Tuning: Standard (E A D G)

Key: Em

Difficulty: Novice
INTRO: w/ Overdrive
0.11 - 0.21

G |-------------------------|--------------------------|--------------------------|--------------------------|
D |-------------------------|--------------------------|--------------------------|--------------------------|
A |-5-/7--7--7--7--5--7-----|-(7)----------------------|--5-/7--7--7--5--5-/9-----|-(9)----------------------|
E |-------------------------|--------------------------|--------------------------|--------------------------|


G |-------------------------|--------------------------|--------------------------|--------------------------|
D |-------------------------|--------------------------|--------------------------|--------------------------|
A |-5-/7--7--7--7--5--7-----|-(7)----------------------|--5-/7--7--7--7--7--7--7--|--7--7--7--7--7--7--12\---|
E |-------------------------|--------------------------|--------------------------|--------------------------|


PRE-VERSE x2: w/ Overdrive
0.21 - 0.31

G |-------------------------|--------------------------|--------------------------|--------------------------|
D |-------------------------|--------------------------|--------------------------|--------------------------|
A |-5-/7--7--7--7--5--5--7--|-----5--7--9--10-9--9--10-|--5--7--7--7--7--5--5--7--|--5--7--12-12-12-12-12-12-|
E |-------------------------|--------------------------|--------------------------|--------------------------|


VERSE x2:
0.31 - 0.42

G |-------------------------|--------------------------|--------------------------|--------------------------|
D |-------------------------|--------------------------|--------------------------|--------------------------|
A |-5-/7--7--7--7--5--5--7--|-----5--7--9--10-9--9--10-|--5--7--7--7--7--5--5--7--|--5--7--12-12-12-12-12-12-|
E |-------------------------|--------------------------|--------------------------|--------------------------|


CHORUS x2:
0.42 - 0.52

G |-------------------------|--------------------------|--------------------------|--------------------------|
D |-------------------------|-----------7--------------|--------------------------|--------------------------|
A |-5-/7--7--7--7--5--5--7--|-----5--5--------5--5--5--|--5-/7--7--7--7--5--5--7--|--5--5--5-----4--4--4--4--|
E |-------------------------|--------------------------|--------------------------|--------------------------|


VERSE x2:
0.52 - 1.02

G |-------------------------|--------------------------|--------------------------|--------------------------|
D |-------------------------|--------------------------|--------------------------|--------------------------|
A |-5-/7--7--7--7--5--5--7--|-----5--7--9--10-9--9--10-|--5--7--7--7--7--5--5--7--|--5--7--12-12-12-12-12-12-|
E |-------------------------|--------------------------|--------------------------|--------------------------|


CHORUS A:
1.02 - 1.13

G |-------------------------|--------------------------|--------------------------|--------------------------|
D |-------------------------|-----------7--------------|--------------------------|--------------------------|
A |-5-/7--7--7--7--5--5--7--|-----5--5--------5--5--5--|--5-/7--7--7--7--5--5--7--|--5--5--5-----4--4--4--4--|
E |-------------------------|--------------------------|--------------------------|--------------------------|


G |-------------------------|--------------------------|--------------------------|--------------------------|
D |-------------------------|--------------------------|--------------------------|--------7-----------------|
A |-5-/7--7--7--7--5--5--7--|-----5--5--5-----5--5--5--|--5-/7--7--7--7--5--5--7--|--5--5--------5--5--5--5--|
E |-------------------------|--------------------------|--------------------------|--------------------------|


CHORUS B x2: w/ Overdrive
1.13 - 1.23

G |-------------------------|--------------------------|--------------------------|--------------------------|
D |-------------------------|--------------------------|--------------------------|--------------------------|
A |-------------------------|--------------------------|--------------------------|--------------------------|
E |/9--9--9--9--9--9-/9--9--|--9--9--9--9-/12-12-12-12-|-/9--9--9--9--9--9-/9--9--|-----14-14-12-14-14-14-14-|


POST-CHORUS x4: w/ Overdrive
1.23 - 1.34

G |-------------------------|--------------------------|--------------------------|--------------------------|
D |-------------------------|--------------------------|--------------------------|--------------------------|
A |-------------------------|--------------------------|--------------------------|--------------------------|
E |-2--------3--------5-----|--2--------3--------5-----|--2--------3--------5-----|--2--------3--------5-----|


G |-------------------------|--------------------------|--------------------------|--------------------------|
D |-------------------------|--------------------------|--------------------------|--------------------------|
A |-7-----------------------|-(7)----------------------|-(7)----------------------|-(7)----------------12\---|
E |-------------------------|--------------------------|--------------------------|--------------------------|


PRE-VERSE x4: w/ Overdrive
1.34 - 1.55

G |-------------------------|--------------------------|--------------------------|--------------------------|
D |-------------------------|--------------------------|--------------------------|--------------------------|
A |-5-/7--7--7--7--5--5--7--|-----5--7--9--10-9--9--10-|--5--7--7--7--7--5--5--7--|--5--7--12-12-12-12-12-12-|
E |-------------------------|--------------------------|--------------------------|--------------------------|


VERSE x4:
1.55 - 2.16

G |-------------------------|--------------------------|--------------------------|--------------------------|
D |-------------------------|--------------------------|--------------------------|--------------------------|
A |-5-/7--7--7--7--5--5--7--|-----5--7--9--10-9--9--10-|--5--7--7--7--7--5--5--7--|--5--7--12-12-12-12-12-12-|
E |-------------------------|--------------------------|--------------------------|--------------------------|


CHORUS x2:
2.16 - 2.26

G |-------------------------|--------------------------|--------------------------|--------------------------|
D |-------------------------|-----------7--------------|--------------------------|--------------------------|
A |-5-/7--7--7--7--5--5--7--|-----5--5--------5--5--5--|--5-/7--7--7--7--5--5--7--|--5--5--5-----4--4--4--4--|
E |-------------------------|--------------------------|--------------------------|--------------------------|


BRIDGE x2: (6/8 feel)
2.26 - 2.58

G |-------------------|--------------------|--------------------|--------------------|
D |-------------------|--------------------|--------------------|--------------------|
A |-7-----------------|-(7)----------------|-\2-----------------|-(2)----------------|
E |-------------------|--------------------|--------------------|--------------------|


G |-------------------|--------------------|--------------------|--------------------|
D |-------------------|--------------------|--------------------|--------------------|
A |/4-----------------|-(4)----------------|-\0-----------------|-/12----------------|
E |-------------------|--------------------|--------------------|--------------------|


VERSE x2: w/ Overdrive
2.58 - 3.08

G |-------------------------|--------------------------|--------------------------|--------------------------|
D |-------------------------|--------------------------|--------------------------|--------------------------|
A |-5-/7--7--7--7--5--5--7--|-----5--7--9--10-9--9--10-|--5--7--7--7--7--5--5--7--|--5--7--12-12-12-12-12-12-|
E |-------------------------|--------------------------|--------------------------|--------------------------|


CHORUS x2:
3.08 - 3.19

G |-------------------------|--------------------------|--------------------------|--------------------------|
D |-------------------------|-----------7--------------|--------------------------|--------------------------|
A |-5-/7--7--7--7--5--5--7--|-----5--5--------5--5--5--|--5-/7--7--7--7--5--5--7--|--7--5--5--0--5--5--4--4--|
E |-------------------------|--------------------------|--------------------------|--------------------------|


G |-------------------------|--------------------------|--------------------------|--------------------------|
D |-------------------------|-----------7--------------|--------------------------|--------------------------|
A |-4-/7--7--7--7--5--5--7--|-----5--5--------5--5--5--|--5-/7--7--7--7--5--5--7--|--5--0--------5--5--4--4--|
E |-------------------------|--------------------------|--------------------------|--------------------------|


ENDING: w/ Overdrive
3.19 - End

G |-------------------------|--------------------------|--------------------------|--------------------------|
D |-------------------------|--------------------------|--------------------------|--------------------------|
A |-------------------------|--------------------------|--------------------------|--------------------------|
E |-2--------3--------5-----|--2--------3--------5-----|--2--------3--------5-----|--2--------3--------5-----|


G |-------------------------|--------------------------|--------------------------|--------------------------|
D |-------------------------|--------------------------|--------------------------|--------------------------|
A |-0-----------------------|-(0)----------------------|-(0)----------------------|-(0)----------------------|
E |-------------------------|--------------------------|--------------------------|--------------------------|


************************************

| /  Slide up
| \  Slide down
| () Note held from previous measure

************************************

Almost there ...

Sign in to get your own page with links to favourite songs and more. You are just one click away...

Login with Facebook Login with Google