Log in

One click and you are in

Login with Facebook Login with Google

Why sign up and log in

Guitar Tabs Explorer
Danny Saucedo bass tabs for Dandi dansa

Bass tabs

Tuning: Standard (E A D G)

VERS 1

G|-----------------5h7---------------------------------------------7--------------------10----------|
D|-----------3-----------------------------------------------3h5---------5-----------0--------------|
A|--3--------------------------------3-----1--------3-----------------------------------------------|
E|-----------------------3--------------------------------------------------------------------------|
  1 + 2 + 3 + 4 + 1 + 2 + 3 + 4 + 1 + 2 + 3 + 4 + 1 + 2 + 3 + 4 +
G|-----------------5h7------------------------------------------------------------------------------|
D|-----------3--------------------------------------------------------------------------------3/----|
A|--3--------------------------------3-----1--------6--6-----6--------------------------------------|
E|-----------------------3-----------------------------------------1-----3--------------3-----------|
  1 + 2 + 3 + 4 + 1 + 2 + 3 + 4 + 1 + 2 + 3 + 4 + 1 + 2 + 3 + 4 +

G|-----------------5h7---------------------------------------------7--------------------12-12-10----|
D|-----------3-----------------------------------------------3h5---------5--------------------------|
A|--3--------------------------------3h5---1--------3-----------------------------------------------|
E|-----------------------3--------------------------------------------------------------------------|
  1 + 2 + 3 + 4 + 1 + 2 + 3 + 4 + 1 + 2 + 3 + 4 + 1 + 2 + 3 + 4 +

G|-----------------5h7---------------------------------------8-----5-----7--------5h7p5-7-----------|
D|-----------3-----------------------------------------5/8-----------------------------7------------|
A|--3--------------------------------------------6--------------------------------------------------|
E|-----------------------3-----------1--------------------------------------------------------------|
  1 + 2 + 3 + 4 + 1 + 2 + 3 + 4 + 1 + 2 + 3 + 4 + 1 + 2 + 3 + 4 +

REFRÄNG (SLAP)

G|--------------------------------------------------------------------------------------------------|
D|--------------------------------------------------------------------------------------------------|
A|--------------------------------------------------------------------------------------------------|
E|--------------------------------------------------------------------------------------------------|
  1 + 2 + 3 + 4 + 1 + 2 + 3 + 4 + 1 + 2 + 3 + 4 + 1 + 2 + 3 + 4 +

G|--------------------------------------------------------------------------------------------------|
D|--------------------------------------------------------------------------------------------------|
A|-----------------------------------------------------------------------------------1/10\----------|
E|--------------------------------------------------------------------------------------------------|
  1 + 2 + 3 + 4 + 1 + 2 + 3 + 4 + 1 + 2 + 3 + 4 + 1 + 2 + 3 + 4 +

G|------5----------5h7---------------------------------------------7--------------------10-10-10----|
D|-----------3h5-----------------5----------------------5----3h5---------5-----------5p0------------|
A|--3--------------------------------3h5---1/8\-----3-----------------------------------------------|
E|-----------------------3--------------------------------------------------------------------------|
  1 + 2 + 3 + 4 + 1 + 2 + 3 + 4 + 1 + 2 + 3 + 4 + 1 + 2 + 3 + 4 +

G|------5----------5h7---------------------------------8--------------------------------------------|
D|-----------3h5-----------------5------------------------------------------------------5-----------|
A|--3--------------------------------3h5---1/8\-----6-----6--------------------------3h5------------|
E|-----------------------3-----------------------------------------1-----3--------------------------|
  1 + 2 + 3 + 4 + 1 + 2 + 3 + 4 + 1 + 2 + 3 + 4 + 1 + 2 + 3 + 4 +

VERS 2

G|-----------------5h7------------------------------------------------------------------------------|
D|-----------3--------------------------------------------------------------------------------3/----|
A|--3--------------------------------3h5---1--------6-----------------------------------------------|
E|-----------------------3-----------------------------------------1-----3--------------3-----------|
  1 + 2 + 3 + 4 + 1 + 2 + 3 + 4 + 1 + 2 + 3 + 4 + 1 + 2 + 3 + 4 +

G|-----------------5h7---------------------------------------8-----5-----7--------------7-----------|
D|-----------3-----------------------------------------5/8---------------------------7--------------|
A|--3--------------------------------------------6--------------------------------------------------|
E|-----------------------3-----------1--------------------------------------------------------------|
  1 + 2 + 3 + 4 + 1 + 2 + 3 + 4 + 1 + 2 + 3 + 4 + 1 + 2 + 3 + 4 +

REFRÄNG (SLAP)

G|--------------------------------------------------------------------------------------------------|
D|--------------------------------------------------------------------------------------------------|
A|--------------------------------------------------------------------------------------------------|
E|--------------------------------------------------------------------------------------------------|
  1 + 2 + 3 + 4 + 1 + 2 + 3 + 4 + 1 + 2 + 3 + 4 + 1 + 2 + 3 + 4 +

G|--------------------------------------------------------------------------------------------------|
D|--------------------------------------------------------------------------------------------------|
A|-----------------------------------------------------------------------------------1/10\----------|
E|--------------------------------------------------------------------------------------------------|
  1 + 2 + 3 + 4 + 1 + 2 + 3 + 4 + 1 + 2 + 3 + 4 + 1 + 2 + 3 + 4 +

G|------5----------5h7---------------------------------------------7--------------------10-10-10----|
D|-----------3h5-----------------5----------------------5----3h5---------5-----------5p0------------|
A|--3--------------------------------3h5---1/8\-----3-----------------------------------------------|
E|-----------------------3--------------------------------------------------------------------------|
  1 + 2 + 3 + 4 + 1 + 2 + 3 + 4 + 1 + 2 + 3 + 4 + 1 + 2 + 3 + 4 +

G|------5----------5h7---------------------------------8--------------------------------------------|
D|-----------3h5-----------------5------------------------------------------------------5-----------|
A|--3--------------------------------3h5---1/8\-----6-----6--------------------------3h5------------|
E|-----------------------3-----------------------------------------1-----3--------------------------|
  1 + 2 + 3 + 4 + 1 + 2 + 3 + 4 + 1 + 2 + 3 + 4 + 1 + 2 + 3 + 4 +

STICK

G|--------------------------------------------------------------------------------------------------|
D|--------------------------------------------------------------------------------------------------|
A|--3--------------5-----------------------1--------3--------------5--------------------------------|
E|-----------------------3-----------------------------------------------3--------------3-----3-----|
  1 + 2 + 3 + 4 + 1 + 2 + 3 + 4 + 1 + 2 + 3 + 4 + 1 + 2 + 3 + 4 +

G|--------------------------------------------------------------------------------------------------|
D|--------------------------------------------------------------------------------------------------|
A|--3--------------5-----------------------1--------6-----------------------------------------------|
E|-----------------------5-----------------------------------------1--------------------------------|
  1 + 2 + 3 + 4 + 1 + 2 + 3 + 4 + 1 + 2 + 3 + 4 + 1 + 2 + 3 + 4 +

REFRÄNG (SLAP)

G|--------------------------------------------------------------------------------------------------|
D|--------------------------------------------------------------------------------------------------|
A|--------------------------------------------------------------------------------------------------|
E|--------------------------------------------------------------------------------------------------|
  1 + 2 + 3 + 4 + 1 + 2 + 3 + 4 + 1 + 2 + 3 + 4 + 1 + 2 + 3 + 4 +

G|--------------------------------------------------------------------------------------------------|
D|--------------------------------------------------------------------------------------------------|
A|--------------------------------------------------------------------------------------------------|
E|--------------------------------------------------------------------------------------------------|
  1 + 2 + 3 + 4 + 1 + 2 + 3 + 4 + 1 + 2 + 3 + 4 + 1 + 2 + 3 + 4 +

G|------5----------5h7---------------------------------------------7--------------------10-10-10----|
D|-----------3h5-----------------5----------------------5----3h5---------5-----------5p0------------|
A|-----------------------------------3h5---1/8\-----3-----------------------------------------------|
E|-----------------------3--------------------------------------------------------------------------|
  1 + 2 + 3 + 4 + 1 + 2 + 3 + 4 + 1 + 2 + 3 + 4 + 1 + 2 + 3 + 4 +


G|------5----------5h7------------------------------8-----------------------------------------------|
D|-----------3h5-----------------5------------------------------------------------------------------|
A|--3--------------------------------3h5---1/8\-----------------------------------------------------|
E|-----------------------3--------------------------------------------------------------------------|
  1 + 2 + 3 + 4 + 1 + 2 + 3 + 4 + 1 + 2 + 3 + 4 + 1 + 2 + 3 + 4 +

Tab legend:

|h hammer-on
|p pull-off
|\ slide down
|/ slide up

Almost there ...

Sign in to get your own page with links to favourite songs and more. You are just one click away...

Login with Facebook Login with Google