Log in

One click and you are in

Login with Facebook Login with Google

Why sign up and log in

Guitar Tabs Explorer
Sarah Vaughan bass tabs for What a difference a day makes

What A Difference A Day Makes bass tab by Sarah Vaughan

Sarah Vaughan bass tabs for What a difference a day makes

Bass tabs

What a Difference a Day Makes – Sarah Vaughan Version (2.50 mins)

A steady walking bass line transcribed for playability on double bass.

G |-0---------------|---------4------|----------0---4--|--2--------------|
D |-----3-----------|-----4----------|--2---4----------|-----------------|
A |---------3---0---|-2-----------2--|-----------------|-----------------|
E |-----------------|----------------|-----------------|-----------------|
  1 & 2 & 3 & 4 &  1 & 2 & 3 & 4 &  1 & 2 & 3 & 4 &  1 & 2 & 3 & 4 &
VS1
G |-----2---0---4-|---2---0--------|------------2-------|-----------------|
D |---------------|-----------4---2|----0-----------2---|-4-------4---3---|
A |-2-------------|----------------|--------0-----------|-----0-----------|
E |---------------|----------------|--------------------|-----------------|
  1 & 2 & 3 & 4 &  1 & 2 & 3 & 4 &  1 & 2 & 3 & 4 &  1 & 2 & 3 & 4 &

G |---------0---4-|---2---------------|---------0---4--|--7-- 6- -4----|
D |-2---4---------|-------2-----------|-2---4----------|----------- --7|
A |---------------|-----------4---0---|----------------|---------------|
E |---------------|-------------------|----------------|---------------|
  1 & 2 & 3 & 4 &  1 & 2 & 3 & 4 &  1 & 2 & 3 & 4 &  1 & 2 & 3 & 4 &
(0.24)
G |-6---4----------|----------------|---------------4-|---2---0--------|
D |---------7---5--|--4---0---------|---0---2---4-----|-----------4---2|
A |----------------|----------4---2-|-----------------|----------------|
E |----------------|----------------|-----------------|----------------|
  1 & 2 & 3 & 4 &  1 & 2 & 3 & 4 &  1 & 2 & 3 & 4 &  1 & 2 & 3 & 4 &

(0.31)
G |-1---1---3-------|-1---1-------3---|-3----------------|-----------------|
D |-------------3---|---------3-------|-----3------------|-----------------|
A |-----------------|-----------------|---------3-2-1----|-----------------|
E |-----------------|-----------------|------------------|-----------------|
  1 & 2 & 3 & 4 &  1 & 2 & 3 & 4 &  1 & 2 & 3 & 4 &  1 & 2 & 3 & 4 &
VS2 (0.39)
G |---------0---4---|-2----------------|-----------------|-----------------|
D |-2---4-----------|-----2------------|-0--2---4---2----|4---3---2---4----|
A |-----------------|---------4---0----|-----------------|-----------------|
E |-----------------|------------------|-----------------|-----------------|
  1 & 2 & 3 & 4 &  1 & 2 & 3 & 4 &  1 & 2 & 3 & 4 &  1 & 2 & 3 & 4 &
(0.47)
G |--------0----4---|--------11--14---|---------------|-----------------|
D |-2---4-----------|-12-14-----------|-12------------|-----------------|
A |-----------------|-----------------|----12---------|-----------9--12-|
E |-----------------|-----------------|--------14--12-|---10--12--------|
  1 & 2 & 3 & 4 &  1 & 2 & 3 & 4 &  1 & 2 & 3 & 4 &  1 & 2 & 3 & 4 &
(0.55)
G |-4---2---0-------|---------6-------|-----------------|-----2-------2---|
D |-------------4---|-0-----------7---|-4---2---0---4---|-3-------3-------|
A |-----------------|-----0-----------|-----------------|-----------------|
E |-----------------|-----------------|-----------------|-----------------|
  1 & 2 & 3 & 4 &  1 & 2 & 3 & 4 &  1 & 2 & 3 & 4 &  1 & 2 & 3 & 4 &

(1.03)                (Half time feel)
G |---------0---4---|-2---------------|-----2---2---2---|-----2---2---2--|
D |-2---4-----------|-----2-------2---|-0---------------|-0--------------|
A |-----------------|---------4-------|-----------------|----------------|
E |-----------------|-----------------|-----------------|----------------|
  1 & 2 & 3 & 4 &  1 & 2 & 3 & 4 &  1 & 2 & 3 & 4 &  1 & 2 & 3 & 4 &
            (Guitar solo) (1.14)
G |-----2---2---2---|-----------------|-4---2---0---4---|---------6---9---|
D |-0---------------|-0---------------|-----------------|-7---9-----------|
A |-----------------|-----------------|-----------------|-----------------|
E |-----------------|-----------------|-----------------|-----------------|
  1 & 2 & 3 & 4 &  1 & 2 & 3 & 4 &  1 & 2 & 3 & 4 &  1 & 2 & 3 & 4 &
(1.18)
G |-11--9-----------|-----------------|---------0---4---|---------6---9---|
D |--------12-------|-4---2---4---3---|-2---4-----------|-7---9-----------|
A |------------12---|-----------------|-----------------|-----------------|
E |-----------------|-----------------|-----------------|-----------------|
  1 & 2 & 3 & 4 &  1 & 2 & 3 & 4 &  1 & 2 & 3 & 4 &  1 & 2 & 3 & 4 &
(1.25)
G |-7---------------|-----------------|---------4---7---|-9---7-----------|
D |-----7-----------|-----4---7---6---|-5---7-----------|---------9-------|
A |---------9---7---|-5---------------|-----------------|------------10---|
E |-----------------|-----------------|-----------------|-----------------|
  1 & 2 & 3 & 4 &  1 & 2 & 3 & 4 &  1 & 2 & 3 & 4 &  1 & 2 & 3 & 4

(1.33)
G |-----------------|---------4-------|---------0---4---|-2---------------|
D |-4---2---0---4---|-4---4-------4---|-2---4-----------|-----2-----------|
A |-----------------|-----------------|-----------------|---------4---0---|
E |-----------------|-----------------|-----------------|-----------------|
  1 & 2 & 3 & 4 &  1 & 2 & 3 & 4 &  1 & 2 & 3 & 4 &  1 & 2 & 3 & 4 &
                  VS3 (1.45)
G |---------4---2---|-----------------|-4---2---0-------|-2---------------|
D |-0---4-----------|-0---------------|-------------4---|-----2-----------|
A |-----------------|-----------------|-----------------|---------4---0---|
E |-----------------|-----------------|-----------------|-----------------|
  1 & 2 & 3 & 4 &  1 & 2 & 3 & 4 &  1 & 2 & 3 & 4 &  1 & 2 & 3 & 4 &
                            (1.55)
G |---------0---4---|-7---6-----------|-0--------------|-----------------|
D |-2---4-----------|---------9---7---|-----4---2---0--|--0--------------|
A |-----------------|-----------------|----------------|------4---2---0--|
E |-----------------|-----------------|----------------|-----------------|
  1 & 2 & 3 & 4 &  1 & 2 & 3 & 4 &  1 & 2 & 3 & 4 &  1 & 2 & 3 & 4 &

G |------- -0---4---|-7---6-----------|-----2---4---5---|-6---------------|
D |-2- -4-----------|---------9---7---|-4---------------|-----4-------4---|
A |-----------------|-----------------|-----------------|---------4-------|
E |-----------------|-----------------|-----------------|-----------------|
  1 & 2 & 3 & 4 &  1 & 2 & 3 & 4 &  1 & 2 & 3 & 4 &  1 & 2 & 3 & 4 &

(2.04)
G |-------------6---|-3---------------|-1---1---3-------|-1---1-------3---|
D |-----4---3-------|-----4-------4---|-------------3---|---------3-------|
A |-4---------------|---------4-------|-----------------|-----------------|
E |-----------------|-----------------|-----------------|-----------------|
  1 & 2 & 3 & 4 &  1 & 2 & 3 & 4 &  1 & 2 & 3 & 4 &  1 & 2 & 3 & 4 &
                   (2.16)
G |-3---------------|-----------------|-----6---9---7---|-6---------------|
D |-----3-----------|-----------------|-9---------------|-----7-------0---|
A |---------3---2---|-1---------------|-----------------|---------7-------|
E |-----------------|-----------------|-----------------|-----------------|
  1 & 2 & 3 & 4 &  1 & 2 & 3 & 4 &  1 & 2 & 3 & 4 &  1 & 2 & 3 & 4 &
(2.20)
G |-----9---7---6---|-----------------|---------0---4---|-2----------------|
D |-----------------|-9---7-----------|-2---4-----------|-----2------------|
A |-----------------|---------9---9---|-----------------|---------4---0----|
E |-9---------------|-----------------|-----------------|------------------|
  1 & 2 & 3 & 4 &  1 & 2 & 3 & 4 &  1 & 2 & 3 & 4 &  1 & 2 & 3 & 4 &
                (2.30)
G |-------------7---|-5---------------|-----------------|---------6-------|
D |---------7-------|-----7---4---7---|-5---------------|-----5-----------|
A |-5---7-----------|-----------------|-----7---5-------|-4-----------4---|
E |-----------------|-----------------|-------------7---|-----------------|
  1 & 2 & 3 & 4 &  1 & 2 & 3 & 4 &  1 & 2 & 3 & 4 &  1 & 2 & 3 & 4 &


G |-----------------|-----2-------2---|---------0---4---|-2---------------|
D |-4---2---0---4---|-3-------3-------|-2---4-----------|-----------------|
A |-----------------|-----------------|-----------------|-----------------|
E |-----------------|-----------------|-----------------|-----------------|
  1 & 2 & 3 & 4 &  1 & 2 & 3 & 4 &  1 & 2 & 3 & 4 &  1 & 2 & 3 & 4 &
(2.44)
G |-----------------|-----------------|-----------------|-----------------|
D |-----------------|-----------------|-----------------|-----------------|
A |-12-11-10--8-7-6-|-5---------------|-----------------|-----------------|
E |-----------------|-----------------|-----------------|-----------------|
  1 & 2 & 3 & 4 &  1 & 2 & 3 & 4 &  1 & 2 & 3 & 4 &  1 & 2 & 3 & 4 &

Almost there ...

Sign in to get your own page with links to favourite songs and more. You are just one click away...

Login with Facebook Login with Google