Log in

One click and you are in

Login with Facebook Login with Google

Why sign up and log in

Guitar Tabs Explorer
Sarah Kang bass tabs for Summer is for falling in love

Summer Is For Falling In Love bass tab by Sarah Kang

Sarah Kang bass tabs for Summer is for falling in love

Bass tabs with lyrics

Tuning: Standard (E A D G)


Verse 1 NO BASS:
🎸 Verse 2: Until chorus when begun after first chorus
"Summer is for falling in START:"

G|---------------------------------------------------------------------------|
D|--44-4----22-233-344-4----22-233-344-4----22-233-344-4----22-233-----------|
A|------44-4------------44-4------------44-4------------44-4-----------------|
E|---------------------------------------------------------------------------|


🎸 Pre-Chorus:

Raise your glass to mine...

G|--9--8--6--4--11---9--8--6---4--11-----------------------------------------|
D|---------------------------------------------------------------------------|
A|---------------------------------------------------------------------------|
E|---------------------------------------------------------------------------|


🎸 Chorus:

For summer is for falling in

G|-9--9--10--11--------------------------------------------------------------|
D|---------------------------------------------------------------------------|
A|---------------------------------------------------------------------------|
E|---------------------------------------------------------------------------|


Interlude do-waps and instrumental 🎸 Solo:

...Love. 8.5 times for same thing during do-waps and solo

G|---------------------------------------------------------------------------|
D|--44-4----22-233-344-4----22-233-344-4----22-233-344-4----22-233-344-------|
A|------44-4------------44-4------------44-4------------44-4-----------------|
E|---------------------------------------------------------------------------|

G|-------------------------------------------------------------------------------|
D|--44-4----22-233-344-4----22-233-344-4----22-233-344-4----22-233-344----22-233-|
A|------44-4------------44-4------------44-4------------44-4----------44-4-------|
E|--------------------------------------------------------------------------------|

PAUSE AFTER INTERLUDE

PAUSE THROUGH

"This likeness of being, we both know to be fleeting
Like the last breath of a sunset right before the day is dead"

🎸 Pre-Chorus:

But maybe the heat of tokay could keep even winter away
So I'll remember your laugh because nothing ever changes the fact

G|--9--8--6--4--11---9--8--6---4--11-----------------------------------------| 0 --0 0
D|---------------------------------------------------------------------------|
A|---------------------------------------------------------------------------|
E|---------------------------------------------------------------------------|


Chorus and 🎸 Outro:

That summer is for falling in love
Summer is for falling in love

G|-9--9--10--11--8--13------9--9--10--11----maybe-4--------------------------|
D|---------------------------------------------------------------------------|
A|---------------------------------------------------------------------------|
E|---------------------------------------------------------------------------|

Almost there ...

Sign in to get your own page with links to favourite songs and more. You are just one click away...

Login with Facebook Login with Google