Log in

One click and you are in

Login with Facebook Login with Google

Why sign up and log in

Guitar Tabs Explorer
Saosin guitar tabs for Uphill battle

Guitar tabs with lyrics

_______________________
|                       | SONG:      UPHILL BATTLE
|       SAOSIN          | ALBUM:     *unknown*
|_______________________| TABBED BY: ibnzplayer0 (label_Sk8er1@yahoo.com)
 ______________________
| . = PALM MUTE        |
| ~ = LET NOTE RING    |
| / = SLIDE UP         |
| V = NATURAL HARMONIC |
| + = TIED NOTE        |
| b = BEND NOTE        |
|______________________|

TUNING : A chord diagramC majorC A chord diagramG+G A chord diagramC majorC A chord diagramFF A chord diagramA augmentedA A chord diagramD MajorD
3 GUITARS (MOSTLY TWO THROUGHOUT THE WHOLE SONG)
Q = 158
__________________________________________________________________________
INTRO - (guitar /w drums)
   GUITAR 1:
|---------15----12---|-12------------------|--------------------|------------------|
|-12h13p12-----------|---15----12h13p12p10-|-12-----13-----10---|-10---------------|
|--------------------|---------------------|--------------------|------------------|
|--------------------|---------------------|--------------------|------------------|
|--------------------|---------------------|--------------------|------------------|
|--------------------|---------------------|--------------------|------------------|


|---------15----12---|-12------------------|--------------------|------------------|
|-12h13p12-----------|---15----12h13p12p10-|-12-----13-----10---|-12-----13-----10-|
|--------------------|---------------------|--------------------|------------------|
|--------------------|---------------------|--------------------|------------------|
|--------------------|---------------------|--------------------|------------------|
|--------------------|---------------------|--------------------|------------------|x6


CHORUS - (2 guitars)
   GUITAR 1 & 2:
|---------------0-|-0-0-0-0-0-----0-|-0-0-0-0-0-----0-|-0-0-0-0-0-------|
|---------------5-|-5-5-5-5-5-----5-|-5-5-5-5-5-----5-|-5-5-5-5-5-------|
|-----------------|-----------------|-----------------|-----------------|
|-7-7-7-7-7-7-7---|-----------7-7---|-----------7-7---|-----------7-7-7-|
|-7-7-7-7-7-7-7---|-----------7-7---|-----------7-7---|-----------7-7-7-|
|-7-7-7-7-7-7-7---|-----------7-7---|-----------7-7---|-----------7-7-7-|


|---------------0-|-0-0-0-0-0-----0-|-0-0-0-0-0-----0-|-0-0-0-0-0-------|
|---------------5-|-5-5-5-5-5-----5-|-5-5-5-5-5-----5-|-5-5-5-5-5-------|
|-----------------|-----------------|-----------------|-----------------|
|-5-5-5-5-5-5-5---|-----------5-5---|-----------5-5---|-----------5-5---|
|-5-5-5-5-5-5-5---|-----------5-5---|-----------5-5---|-----------5-5---|
|-5-5-5-5-5-5-5---|-----------5-5---|-----------5-5---|-----------5-5---|


PRE-VERSE
GUITAR 1
|-----------15-12-----|------15-12-----------|-----------15-12-----|------15-12-----------|
|---12-13-12-------12-|-13-12-------12-13-12-|---12-13-12-------12-|-13-12-------12-13-12-|
|-14-------------14---|-----------14---------|-14-------------14---|-----------14---------|
|---------------------|----------------------|---------------------|----------------------|
|---------------------|----------------------|---------------------|----------------------|
|---------------------|----------------------|---------------------|----------------------|
|
|GUITAR 2
|---------------------|----------------------|---------------------|----------------------|
|---------------------|----------------------|---------------------|----------------------|
|---------------------|----------------------|---------------------|----------------------|
|-7~~~~~~~~~~~~~~~~~~-|----------------------|---------------------|----------------------|
|-7~~~~~~~~~~~~~~~~~~-|----------------------|---------------------|----------------------|
|-7~~~~~~~~~~~~~~~~~~-|----------------------|---------------------|----------------------|


VERSE
GUITAR 1
|-----------15-12-----|------15-12-----------|-----------15-12-----|------15-12-----------|
|---12-13-12-------12-|-13-12-------12-13-12-|---12-13-12-------12-|-13-12-------12-13-12-|
|-14-------------14---|-----------14---------|-14-------------14---|-----------14---------|
|---------------------|----------------------|---------------------|----------------------|
|---------------------|----------------------|---------------------|----------------------|
|---------------------|----------------------|---------------------|----------------------|x6
|
|GUITAR 2
| (1/2)                                        (1/2)
|-5b5b5---------------|----------------------|-5b5b5---------------|----------------------|
|---------------------|------------------8---|---------------------|------------------8---|
|-------5-7-5---------|----5--7--5--5--7---7-|-------5-7-5---------|----5--7--5--5--7---7-|
|-------------7-------|+7--------------------|-------------7-------|+7--------------------|
|---------------------|----------------------|---------------------|----------------------|
|---------------------|----------------------|---------------------|----------------------|x6



CHORUS - (2 guitars)
   GUITAR 1 & 2:
|---------------0-|-0-0-0-0-0-----0-|-0-0-0-0-0-----0-|-0-0-0-0-0-------|
|---------------5-|-5-5-5-5-5-----5-|-5-5-5-5-5-----5-|-5-5-5-5-5-------|
|-----------------|-----------------|-----------------|-----------------|
|-7-7-7-7-7-7-7---|-----------7-7---|-----------7-7---|-----------7-7-7-|
|-7-7-7-7-7-7-7---|-----------7-7---|-----------7-7---|-----------7-7-7-|
|-7-7-7-7-7-7-7---|-----------7-7---|-----------7-7---|-----------7-7-7-|


|---------------0-|-0-0-0-0-0-----0-|-0-0-0-0-0-----0-|-0-0-0-0-0-------|
|---------------5-|-5-5-5-5-5-----5-|-5-5-5-5-5-----5-|-5-5-5-5-5-------|
|-----------------|-----------------|-----------------|-----------------|
|-5-5-5-5-5-5-5---|-----------5-5---|-----------5-5---|-----------5-5---|
|-5-5-5-5-5-5-5---|-----------5-5---|-----------5-5---|-----------5-5---|
|-5-5-5-5-5-5-5---|-----------5-5---|-----------5-5---|-----------5-5---|


BRIDGE -
   GUITAR 1 & 2:
|-----------------|-----------------|-----------------|-----------------|
|-----------------|-----------------|-----------------|-----------------|
|-----------------|-----------------|-----------------|-----------------|
|-3-3-3-3-3-3-3-3-|-3-3-3-3-3-3-3-3-|-5-5-5-5-5-5-5-5-|-5-5-5-5-5-5-5-5-|
|-3-3-3-3-3-3-3-3-|-3-3-3-3-3-3-3-3-|-5-5-5-5-5-5-5-5-|-5-5-5-5-5-5-5-5-|
|-3-3-3-3-3-3-3-3-|-3-3-3-3-3-3-3-3-|-5-5-5-5-5-5-5-5-|-5-5-5-5-5-5-5-5-|


|-----------------|-----------------|-----------------|-----------------|
|-----------------|-----------------|-----------------|-----------------|
|-----------------|-----------------|-----------------|-----------------|
|-7-7-7-7-7-7-7-7-|-7-7-7-7-7-7-7-7-|-5-5-5-5-5-5-5-5-|-5-5-5-5-5-5-5-5-|
|-7-7-7-7-7-7-7-7-|-7-7-7-7-7-7-7-7-|-5-5-5-5-5-5-5-5-|-5-5-5-5-5-5-5-5-|
|-7-7-7-7-7-7-7-7-|-7-7-7-7-7-7-7-7-|-5-5-5-5-5-5-5-5-|-5-5-5-5-5-5-5-5-|


|-----------------|-----------------|-----------------|-----------------|
|-----------------|-----------------|-----------------|-----------------|
|-----------------|-----------------|-----------------|-----------------|
|-3-3-3-3-3-3-3-3-|-3-3-3-3-3-3-3-3-|-5-5-5-5-5-5-5-5-|-5-5-5-5-5-5-5-5-|
|-3-3-3-3-3-3-3-3-|-3-3-3-3-3-3-3-3-|-5-5-5-5-5-5-5-5-|-5-5-5-5-5-5-5-5-|
|-3-3-3-3-3-3-3-3-|-3-3-3-3-3-3-3-3-|-5-5-5-5-5-5-5-5-|-5-5-5-5-5-5-5-5-|


CHORUS - (2 guitars)
   GUITAR 1 & 2:
|---------------0-|-0-0-0-0-0-----0-|-0-0-0-0-0-----0-|-0-0-0-0-0-------|
|---------------5-|-5-5-5-5-5-----5-|-5-5-5-5-5-----5-|-5-5-5-5-5-------|
|-----------------|-----------------|-----------------|-----------------|
|-7-7-7-7-7-7-7---|-----------7-7---|-----------7-7---|-----------7-7-7-|
|-7-7-7-7-7-7-7---|-----------7-7---|-----------7-7---|-----------7-7-7-|
|-7-7-7-7-7-7-7---|-----------7-7---|-----------7-7---|-----------7-7-7-|


|---------------0-|-0-0-0-0-0-----0-|-0-0-0-0-0-----0-|-0-0-0-0-0-------|
|---------------5-|-5-5-5-5-5-----5-|-5-5-5-5-5-----5-|-5-5-5-5-5-------|
|-----------------|-----------------|-----------------|-----------------|
|-5-5-5-5-5-5-5---|-----------5-5---|-----------5-5---|-----------5-5---|
|-5-5-5-5-5-5-5---|-----------5-5---|-----------5-5---|-----------5-5---|
|-5-5-5-5-5-5-5---|-----------5-5---|-----------5-5---|-----------5-5---|x2


BREAKDOWN -
   GUITAR 1
|----------------|----------------|----------------|----------------|
|------------5---|----------------|----------------|----------------|
|-5--------------|-4--------------|----------------|----------------|
|----------------|------------5---|-5/7---7~~~~~~~~|~~~~~~~~~~~/7---|
|----------------|----------------|----------------|----------------|
|----------------|----------------|----------------|----------------|
|
|  GUITAR 2
|----------------|----------------|----------------|----------------|
|----------------|----------------|----------------|----------------|
|----------------|-------5~~~~~~~~|----------------|----------------|
|-7~~~~~7~~~~~~~~|-5~~~5~~~~~~~~~~|-3-----33~~~~~~~|-3-----33~~~~~~~|
|-7~~~~~~~~~~~~~~|-5~~~~~~~~~~~~~~|-3-333333~~~~~~~|-3-----33~~~~~~~|
|-7~~~~~~~~~~~~~~|-5~~~~~~~~~~~~~~|-3-333333~~~~~~~|-3-----33~~~~~~~|
|                                   PM....
|  GUITAR 3
|----------------|----------------|----------------|----------------|
|----------------|----------------|----------------|----------------|
|----------------|----------------|----------------|----------------|
|-00-00000-0-000-|-00-00000-0-000-|-00-00000-0-000-|-00000-00000-000|
|-00-00000-0-000-|-00-00000-0-000-|-00-00000-0-000-|-00000-00000-000|
|-00-00000-0-000-|-00-00000-0-000-|-00-00000-0-000-|-00000-00000-000|
  SE SSSSE A chord diagramE MajorE SSE   SE SSSSE A chord diagramE MajorE SSE   SE SSSSE A chord diagramE MajorE SSE   SSSSE SSSSE SSE
*ill show what type of notes are played


   GUITAR 1
|----------------|----------------|----------------|----------------|
|------------5---|----------------|----------------|----------------|
|-5--------------|-4--------------|----------------|----------------|
|----------------|------------5---|-5/7---7~~~~~~~~|~~~~~~~~~~~/7---|
|----------------|----------------|----------------|----------------|
|----------------|----------------|----------------|----------------|
|
|  GUITAR 2
|----------------|----------------|----------------|----------------|
|----------------|----------------|----------------|----------------|
|----------------|-------8~~~~~~~~|----------------|----------------|
|-7~~~~~~~~~~~~~~|-5~~~5~~~5~~~~~~|-3---3~~~~~~~~~~|-3~~~~~~~~~~~~~~|
|-7~~~~~~~~~~~~~~|-5~~~~~~~~~~~~~~|-3---3~~~~~~~~~~|-3~~~~~~~~~~~~~~|
|-7~~~~~~~~~~~~~~|-5~~~~~~~~~~~~~~|-3---3~~~~~~~~~~|-3~~~~~~~~~~~~~~|
|
|  GUITAR 3
|----------------|----------------|----------------|----------------|
|----------------|----------------|----------------|----------------|
|----------------|----------------|----------------|----------------|
|-00-00000-0-000-|-00-00000-0-000-|-00-00000-0-000-|-00000-00000-000|
|-00-00000-0-000-|-00-00000-0-000-|-00-00000-0-000-|-00000-00000-000|
|-00-00000-0-000-|-00-00000-0-000-|-00-00000-0-000-|-00000-00000-000|
  SE SSSSE A chord diagramE MajorE SSE   SE SSSSE A chord diagramE MajorE SSE   SE SSSSE A chord diagramE MajorE SSE   SSSSE SSSSE SSE


   GUITAR 1                                                  (1-1/2)
|----------------|----------------|----------------|-----------b10--|
|/5~~~~~~~~~~~~~~|~~~~~~~~~~~~~~~~|----------------|-----------b12--|
|----------------|----------------|----------------|----------------|
|----------------|----------------|----------------|----------------|
|----------------|----------------|----------------|----------------|
|----------------|----------------|----------------|----------------|
|
|  GUITAR 2
|----------------|----------------|----------------|----------------|
|----------------|----------------|----------------|----------------|
|----------------|----------------|----------------|----------------|
|-7~~~~~~~~~~~~~~|~~~~~~~~~~~~~~~~|----------------|----------------|
|-7~~~~~~~~~~~~~~|-5~~~~~~~~~~~~~~|----------------|----------------|
|-7~~~~~~~~~~~~~~|-5~~~~~~~~~~~~~~|----------------|----------------|
|
|  GUITAR 3
|----------------|----------------|----------------|----------------|
|----------------|----------------|----------------|----------------|
|----------------|----------------|----------------|----------------|
|----------------|----------------|----------------|----------------|
|-02-2-2-2-2-7-20|-02-2-2-2-2-7-20|22-072-272-222-0|22-072-272-222-0|
|-02-2-2-2-2-7-20|-02-2-2-2-2-7-20|22-072-272-222-0|22-072-272-222-0|
  SE A chord diagramE MajorE A chord diagramE MajorE A chord diagramE MajorE A chord diagramE MajorE A chord diagramE MajorE ES  SE A chord diagramE MajorE A chord diagramE MajorE A chord diagramE MajorE A chord diagramE MajorE A chord diagramE MajorE ES SE SSE SSE SSE S SE SSE SSE SSE S


OUTRO
   GUITAR 1
|-----------------|-----------------|-----------------|-----------------|
|-----------------|-----------------|-----------------|-----------------|
|-9-9-9-9-9-9-9-9-|-9-9-7-7-5-------|-7-7-7-7-7-7-7-7-|-5-5-5-5-7-7-7-7-|
|-x-x-x-x-x-x-x-x-|-x-x-x-x-x-------|-x-x-x-x-x-x-x-x-|-x-x-x-x-x-x-x-x-|
|-7-7-7-7-7-7-7-7-|-7-7-5-5-3-------|-5-5-5-5-5-5-5-5-|-3-3-3-3-5-5-5-5-|
|-----------------|-----------------|-----------------|-----------------|
|
|  GUITAR 2
|-----------------|-----------------|-----------------|-----------------|
|-----------------|-----------------|-----------------|-----------------|
|-----------------|-----------------|-----------------|-----------------|
|-7-7-7-7-7-7-7-7-|-7-7-7-7-7-7-7-7-|-3-3-3-3-3-3-3-3-|-3-3-3-3-3-3-3-3-|
|-7-7-7-7-7-7-7-7-|-7-7-7-7-7-7-7-7-|-3-3-3-3-3-3-3-3-|-3-3-3-3-3-3-3-3-|
|-7-7-7-7-7-7-7-7-|-7-7-7-7-7-7-7-7-|-3-3-3-3-3-3-3-3-|-3-3-3-3-3-3-3-3-|


|-----------------|-----------------|-----------------|-----------------|
|-----------------|-----------------|-----------------|-----------------|
|-9-9-9-9-9-9-9-9-|-9-9-9-7-5-5-5-5-|-7-7-7-7-7-7-7-7-|-9-9-9-9-5-5-5-5-|
|-x-x-x-x-x-x-x-x-|-x-x-x-x-x-x-x-x-|-x-x-x-x-x-x-x-x-|-x-x-x-x-x-x-x-x-|
|-7-7-7-7-7-7-7-7-|-7-7-7-5-3-3-3-3-|-5-5-5-5-5-5-5-5-|-7-7-7-7-3-3-3-3-|
|-----------------|-----------------|-----------------|-----------------|
|
|
|-----------------|-----------------|-----------------|-----------------|
|-----------------|-----------------|-----------------|-----------------|
|-----------------|-----------------|-----------------|-9-9-9-9-5-5-5-5-|
|1212121212121212-|1212121212121212-|-5-5-5-5-5-5-5-5-|-x-x-x-x-x-x-x-x-|
|1212121212121212-|1212121212121212-|-5-5-5-5-5-5-5-5-|-7-7-7-7-3-3-3-3-|
|1212121212121212-|1212121212121212-|-5-5-5-5-5-5-5-5-|-----------------|
* these are 12's not 1's and 2's


   GUITAR 1
|-----------------|-----------------|-----------------|-----------------|
|-----------------|-----------------|-----------------|-----------------|
|-9-9-9-9-9-9-9-9-|-9-9-7-7-5-------|-7-7-7-7-7-7-7-7-|-5-5-5-5-7-7-7-7-|
|-x-x-x-x-x-x-x-x-|-x-x-x-x-x-------|-x-x-x-x-x-x-x-x-|-x-x-x-x-x-x-x-x-|
|-7-7-7-7-7-7-7-7-|-7-7-5-5-3-------|-5-5-5-5-5-5-5-5-|-3-3-3-3-5-5-5-5-|
|-----------------|-----------------|-----------------|-----------------|
|
|  GUITAR 2
|-----------------|-----------------|-----------------|-----------------|
|-----------------|-----------------|-----------------|-----------------|
|-----------------|-----------------|-----------------|-----------------|
|-7-7-7-7-7-7-7-7-|-7-7-7-7-7-7-7-7-|-3-3-3-3-3-3-3-3-|-3-3-3-3-3-3-3-3-|
|-7-7-7-7-7-7-7-7-|-7-7-7-7-7-7-7-7-|-3-3-3-3-3-3-3-3-|-3-3-3-3-3-3-3-3-|
|-7-7-7-7-7-7-7-7-|-7-7-7-7-7-7-7-7-|-3-3-3-3-3-3-3-3-|-3-3-3-3-3-3-3-3-|


|-----------------|-----------------|-----------------|-----------------|
|-----------------|-----------------|-----------------|-----------------|
|-9-9-9-9-9-9-9-9-|-9-9-9-7-5-5-5-5-|-7-7-7-7-7-7-7-7-|-9~~~~~~~5~~~~~~~|
|-x-x-x-x-x-x-x-x-|-x-x-x-x-x-x-x-x-|-x-x-x-x-x-x-x-x-|-x~~~~~~~x~~~~~~~|
|-7-7-7-7-7-7-7-7-|-7-7-7-5-3-3-3-3-|-5-5-5-5-5-5-5-5-|-7~~~~~~~3~~~~~~~|
|-----------------|-----------------|-----------------|-----------------|
|
|
|-----------------|-----------------|-----------------|-----------------|
|-----------------|-----------------|-----------------|-----------------|
|-----------------|-----------------|-----------------|-9~~~~~~~5~~~~~~~|
|1212121212121212-|1212121212121212-|-5-5-5-5-5-5-5-5-|-x~~~~~~~x~~~~~~~|
|1212121212121212-|1212121212121212-|-5-5-5-5-5-5-5-5-|-7~~~~~~~3~~~~~~~|
|1212121212121212-|1212121212121212-|-5-5-5-5-5-5-5-5-|-----------------|
* these are 12's not 1's and 2's


   GUITAR 1
|-----------------|-----------------|-----------------|-----------------|
|-----------------|-----------------|-----------------|-----------------|
|-9-9-9-9-9-9-9-9-|-9-9-7-7-5-------|-7-7-7-7-7-7-7-7-|-5-5-5-5-7-7-7-7-|
|-x-x-x-x-x-x-x-x-|-x-x-x-x-x-------|-x-x-x-x-x-x-x-x-|-x-x-x-x-x-x-x-x-|
|-7-7-7-7-7-7-7-7-|-7-7-5-5-3-------|-5-5-5-5-5-5-5-5-|-3-3-3-3-5-5-5-5-|
|-----------------|-----------------|-----------------|-----------------|
|
|  GUITAR 2
|-----------------|-----------------|-----------------|-----------------|
|-----------------|-----------------|-----------------|-----------------|
|-----------------|-----------------|-----------------|-----------------|
|-7-7-7-7-7-7-7-7-|-7-7-7-7-7-7-7-7-|-3-3-3-3-3-3-3-3-|-3-3-3-3-3-3-3-3-|
|-7-7-7-7-7-7-7-7-|-7-7-7-7-7-7-7-7-|-3-3-3-3-3-3-3-3-|-3-3-3-3-3-3-3-3-|
|-7-7-7-7-7-7-7-7-|-7-7-7-7-7-7-7-7-|-3-3-3-3-3-3-3-3-|-3-3-3-3-3-3-3-3-|


|-----------------|-----------------|-----------------|-----------------|
|-----------------|-----------------|-----------------|-----------------|
|-9-9-9-9-9-9-9-9-|-9-9-9-7-5-5-5-5-|-7-7-7-7-7-7-7-7-|-9-9-9-9-5-5-5-5-|
|-x-x-x-x-x-x-x-x-|-x-x-x-x-x-x-x-x-|-x-x-x-x-x-x-x-x-|-x-x-x-x-x-x-x-x-|
|-7-7-7-7-7-7-7-7-|-7-7-7-5-3-3-3-3-|-5-5-5-5-5-5-5-5-|-7-7-7-7-3-3-3-3-|
|-----------------|-----------------|-----------------|-----------------|
|
|
|-----------------|-----------------|-----------------|-----------------|
|-----------------|-----------------|-----------------|-----------------|
|-----------------|-----------------|-----------------|-9-9-9-9-5-5-5-5-|
|1212121212121212-|1212121212121212-|-5-5-5-5-5-5-5-5-|-x-x-x-x-x-x-x-x-|
|1212121212121212-|1212121212121212-|-5-5-5-5-5-5-5-5-|-7-7-7-7-3-3-3-3-|
|1212121212121212-|1212121212121212-|-5-5-5-5-5-5-5-5-|-----------------|
* these are 12's not 1's and 2's


|-----------------|
|-----------------|
|-9~~~~~~~~~~~~~~~|
|-x~~~~~~~~~~~~~~~|
|-7~~~~~~~~~~~~~~~|
|-----------------|
|
|
|-----------------|
|-----------------|
|-----------------|
|-7~~~~~~~~~~~~~~~|
|-7~~~~~~~~~~~~~~~|
|-7~~~~~~~~~~~~~~~|


THATS IT....Have fun!

Almost there ...

Sign in to get your own page with links to favourite songs and more. You are just one click away...

Login with Facebook Login with Google