Log in

One click and you are in

Login with Facebook Login with Google

Why sign up and log in

Guitar Tabs Explorer
Saosin bass tabs for The alarming sound of a still small voice

The Alarming Sound Of A Still Small Voice bass tab by Saosin

Saosin bass tabs for The alarming sound of a still small voice

Bass tabs

Drop D *second tab, listen for precision and enjoy =)


Intro/ Verse
G|------------------------------------------------------------------------|
D|------------------------------------------------------------------------|
A|---------------------------------------9\\\\----------------/5555555770-|X3
D|-777-77-7-7-7/10-5-5-5-55-5-5-55h7-335-------3-3-35-0-0-0-0-------------|
Chorus
G|-----------------------------------------------------------------------|
D|-----------------------------------------------------------------------|
A|-----------------------------------------------------------------------|X2
D|-777777105555555533333350-00002-2333333500000000-22222222222222222555--|


Verse 2
G|-----------------------------------------------------------------------|
D|-----------------------------------------------------------------------|
A|--------------------------------------9\\\\----------------/5555555770-|
D|-777-77-7-7-7/10-5-5-5-55-5-5-55h7-33-------3-3-35-0-0-0-0-------------|

G|-----------------------------------------------------------------------|
D|-----------------------------------------------------------------------|
A|---------------------------------------9\\\\---------------/5555555770-|
D|-777-77-7-7-7/10-5-5-5-55-5-5-55h7-335------3-3-35-0-0-0-0-------------|


Chorus
G|-----------------------------------------------------------------------|
D|-----------------------------------------------------------------------|
A|-----------------------------------------------------------------------| X2
D|-777777105555555533333350-00002-2333333500000000-22222222222222222555--|

Bridge
G|------------------------------------------------------|     |---------|
D|------------------------------------------------------|X3    |---------|
A|--------7~--------8-7---------------------------------|last time|---------|
D|-5/7-7-----7-7-7-----3333-55555555555577333\\33333333-|end on  |-7~~~----|
              Wake up….
Soft part (listen for it)
|-----------------------------------------------------------|
|-----------------------------------------------------------|
|-----------------------------------------------------------|
|-7~----7~----7-9-10-10-3~----7---5---3-----7~--9-10-3~--3~-|

Last Chorus
G|------------------------------------------------------------------------|
D|------------------------------------------------------------------------|
A|------------------------------------------------------------------------|
D|-777777105555555533333350-00002-2333333500000000-2222222255555555-------|
   Ohhhhooohhoh…..

G|----------------------------------------------------------------------|
D|----------------------------------------------------------------------|
A|----------------------------------------------------------------------|
D|-777777105555555533333350-00002-2333333500000000-22222222222222222555-|

G|----------------------------------------------------------------------|
D|----------------------------------------------------------------------|
A|----------------------------------------------------------------------|
D|-77-10-5555555-33-5-00002-233333350000000022222222222222222555--------|

End
G|------------------------------------------------------------------------------|
D|------------------------------------------------------------------------------|
A|------------------------------------------------------------------------------|
D|-7107-10-7-10-7-10-7-10-7-10-7-10-7-10-7-10-7-10-7-10-7-10-7-10-7-10-7-10-7---|

|---------------------------|
|---------------------------|
|---------------------------|

Almost there ...

Sign in to get your own page with links to favourite songs and more. You are just one click away...

Login with Facebook Login with Google