Log in

One click and you are in

Login with Facebook Login with Google

Why sign up and log in

Guitar Tabs Explorer
Saosin guitar tabs for I can tell there was an accident here earlier

I Can Tell There Was An Accident Here Earlier tab by Saosin

Saosin guitar tabs for I can tell there was an accident here earlier

Guitar tabs

Tabbed by: Gil Kenneth Ysrael A. Aducal
Chiodos_bullet22@yahoo.com


Tuning : Drop A chord diagramD MajorD (D, A, D, G, B, A chord diagramE MajorE)
Intro:
Guitar 1
e----------------------------------------------------|
B----------------------------------------------------|
G----------------------------------------------------|
D----------------------------------------------------|
A-7(8x)--10(8x)----3(8x)------5----5-5h7-5-3 3-2-----|
D-7------10--------3----------5----------------------|

e-------------------------------------------------|
B-------------------------------------------------|
G-------------------------------------------------|
D--------------------------------------5----------|
A-7(8x)--10(8x)---3(8x)--5-----3-5-3-2---3-2-3----|
D-7------10------3-------5------------------------|
                               . . . . . . . .
Guitar 2 intro:

e--------------------------------------------------------------|
B-------88-----------------------------------------------------|
G-999977xx---------------------12-12---------------------------|
D-xxxxxxxx—--14 14 14 14 12 12 x- x----------------------------|
A-77777777---10 10 10 10 10 10 10 10---------------------------|
D-77777777---10 10 10 10 10 10 10 10---------------------------|

e-------------------------------------------------------------------|
B-55666655------5---------------------------------------------------|
G-xxxxxxxx--7777-777------------------------------------------------|
D-xxxxxxxx--xxxxxxxx------------------------------------------------|               2x
A-33333333--55555555------------------------------------------------|
D-33333333--55555555------------------------------------------------|

e--------------------------------------------|
B--------------------------------------------|
G--------------------------------------------|
D--------5-----------------------------------|
A-3-5-3-2--3-2-3-----------------------------|
D--------------------------------------------|
  . . . .. . . .

Verse 1
Guitar 1:
e-----------------------------------------|
B-----------------------------------------|
G-----------------------------------------|
D-----------------------------------------|
A-7------5--------3~------5---------------|
D-7------5--------3-------5---------------|

Guitar 2:

e----------------------------------------------------------|
B-555555555555555-44444444444-55555555555555-777---5555----|
G----------------------------------------------------------|
D----------------------------------------------------------|
A----------------------------------------------------------|
D----------------------------------------------------------|


Verse 2:
Guitar 1:

e---------------------------------------------|
B---------------------------------------------|
G---------12-9--------------12-9--------------|
D------10-------9-10--9-10--------------------|
A-8-10--------8-----10------------------------|
D---------------------------------------------|

Just continue the the Guitar 2


Pre-Chorus:
Guitar 1
e--------------------------------------|-------------------|
B--------------------------------------|-------------------|
G---------12-9--------------12-9----| 3x-------------------|
D------10-------9-10--9-10----------|----------------------|
A-8-10--------8-----10---------------|---- 5555-555555-5---|
D--------------------------------------|---5555-555555-5---|
                                              .      . .
Guitar 2
e---------------------------------------------|
B---------------------------------------------|
G---2-5-4----2---5-4----2-5-4-----------------|
D--5------3-5--------3-5----------------------|
A-3-------------3-----------------------------|
D---------------------------------------------|


Chorus
Guitar 1:
e----------------------------------------------------|
B----------------------------------------------------|
G----------------------------------------------------|
D----------------------------------------------------|
A-7------10--------3----------5----5-5h7-5-3 3-2-----|
D-7------10--------3----------5----------------------|

e-------------------------------------------------|
B-------------------------------------------------|
G-------------------------------------------------|
D-----------------------------------------5-------|
A-7------10------3-------5-----3-5-3-2---3-2-3----|
D-7------10------3-------5------------------------|
                               . . . . .  .  .  .
Guitar 2 Chorus:

e--------------------------------------------------------------|
B-------88-----------------------------------------------------|
G-999977xx---------------------12-12---------------------------|
D-xxxxxxxx—--14 14 14 14 12 12 x- x----------------------------|
A-77777777---10 10 10 10 10 10 10 10---------------------------|
D-77777777---10 10 10 10 10 10 10 10---------------------------|

e-------------------------------------------------------------------|
B-55666655------5---------------------------------------------------|
G-xxxxxxxx--7777-777------------------------------------------------|
D-xxxxxxxx--xxxxxxxx------------------------------------------------|               2x
A-33333333--55555555------------------------------------------------|
D-33333333--55555555------------------------------------------------|

e--------------------------------------------|
B--------------------------------------------|
G--------------------------------------------|
D--------5-----------------------------------|
A-3-5-3-2--3-2-3-----------------------------|
D--------------------------------------------|
  . . . .. . . .


(Just repeat Verse 1 & 2 tabs in Verse 3 & 4)




Instrumental
Guitar 1

e---------------------------------------------------------|
B-55555555555555-4444444444444444-55555555555555555555----|
G---------------------------------------------------------|
D---------------------------------------------------------|
A---------------------------------------------------------|
D---------------------------------------------------------|

e---------3----|
B--------------|
G-44-4-5-------|

Guitar 2

  LL R RLL  RLRL RLL LL R RLL  RLRL R
e----------------------------------------------------|
B----5-8----5-5--8------5-8----5-5--8----------------|
G-55----55---5-5--55-44----44---4-4------------------|
D----------------------------------------------------|
A----------------------------------------------------|
D----------------------------------------------------|

e---------3----|
B--------------|
G-44-4h5-------|

(Repeat Pre-Chorus)
(Repeat Chorus)

Last Chords

C- C- F- A chord diagramG+G
C- C- F- A chord diagramG+G

A chord diagramFF

Almost there ...

Sign in to get your own page with links to favourite songs and more. You are just one click away...

Login with Facebook Login with Google