Log in

One click and you are in

Login with Facebook Login with Google

Why sign up and log in

Guitar Tabs Explorer
Saosin bass tabs for Fireflies light messenger

Fireflies Light Messenger bass tab by Saosin

Saosin bass tabs for Fireflies light messenger

Bass tabs

Tuning: Drop D (D A D G)


Verse 1:

G|----------------------------------------------------------------|
D|----------------------------------------------------------------|
A|----------------------------------------------------------------|
D|7-7-7---7\--------7---7---7-7---3-3-3---3\--------3---3---3-3---|

G|----------------------------------------------------------------|
D|----------------------------------------------------------5-----|
A|--------------------------------3-3-3-3-3-3-3-3-5-5-5-5-7---7\--|
D|7-7-7---7\--------7---7---7-7-----------------------------------|

G|----------------------------------------------------------------|
D|----------------------------------------------------------------|
A|------7---------------------------------------------------------|
D|7-7-7---7\--------7---7---7-7---3-3-3---3\--------3---3---3-3---|

G|----------------------------------------------------------------|
D|----------------------------------------------------------------|
A|--------------------------------3-3-3-3-3-3-3-3-3---------------|
D|7-7-7---7\--------7---7---7-7---------------------5-5-5-5-5-5-5-|

G|----------------------------------------------------------------|
D|----------------------------------------------------------------|
A|------7---------------------------------------------------------|
D|7-7-7---7\--------7---7---7-7---3-3-3---3\--------3---3---3-3---|

G|----------------------------------------------------------------|
D|----------------------------------------------------------------|
A|--------------------------------3-3-3-3-3-3-3-3-3---------------|
D|7-7-7---7\--------7---7---7-7---------------------5-5-5-2-3-5-5-|


Chorus:

G|----------------------------------------------------------------|
D|----------------------------------------------------------------|
A|----------------------------------------------------------------|
D|7-7-7-7-7-7-7-7-7-7-7-7-7-7-7-7-3-3-3-3-3-3-3-3-3-3-3-3-3-3-3-3-|

G|----------------------------------------------------------------|
D|----------------------------------------------------------5-----|
A|--------------------------------------------------------7---7\--|
D|7-7-7-7-7-7-7-7-7-7-7-7-7-7-7-7-3-3-3-3-3-3-3-3-5-5-5-5---------|

G|----------------------------------------------------------------|
D|----------------------------------------------------------------|
A|----------------------------------------------------------------|
D|7-7-7-7-7-7-7-7-7-7-7-7-7-7-7-7-3-3-3-3-3-3-3-3-3-3-3-3-3-3-3-3-|

G|--------------------------------------------------------------------|
D|--------------------------------------------------------------------|
A|--------------------------------------------------------------------|
D|7-7-7-7-7-7-7-7-7-7-7-7-7-7-7-7-3-3-3-3-3-3-3-3-5-5-5-5-5-5-5-5-3~~~|


Verse 2:

G|----------------------------------------------------------------|
D|----------------------------------------------------------------|
A|----------------------------------------------------------------|
D|7-7-7---7\--------7---7---7-7---3-3-3---3\--------3---3---3-3---|

G|----------------------------------------------------------------|
D|----------------------------------------------------------5-----|
A|--------------------------------3-3-3-3-3-3-3-3-5-5-5-5-7---7\--|
D|7-7-7---7\--------7---7---7-7-----------------------------------|

G|----------------------------------------------------------------|
D|----------------------------------------------------------------|
A|------7---------------------------------------------------------|
D|7-7-7---7\--------7---7---7-7---3-3-3---3\--------3---3---3-3---|

G|----------------------------------------------------------------|
D|----------------------------------------------------------------|
A|--------------------------------3-3-3-3-3-3-3-3-3---------------|
D|7-7-7---7\--------7---7---7-7---------------------5-5-5-5-5-5-5-|

G|----------------------------------------------------------------|
D|----------------------------------------------------------------|
A|----------------------------------------------------------------|
D|7-7-7---7\--------7---7---7-7---3-3-3-3-3-3-3-3-5-5-5-5-2-3-5-5-|


Chorus:

G|----------------------------------------------------------------|
D|----------------------------------------------------------------|
A|----------------------------------------------------------------|
D|7-7-7-7-7-7-7-7-7-7-7-7-7-7-7-7-3-3-3-3-3-3-3-3-3-3-3-3-3-3-3-3-|

G|----------------------------------------------------------------|
D|----------------------------------------------------------5-----|
A|--------------------------------------------------------7---7\--|
D|7-7-7-7-7-7-7-7-7-7-7-7-7-7-7-7-3-3-3-3-3-3-3-3-5-5-5-5---------|

G|----------------------------------------------------------------|
D|----------------------------------------------------------------|
A|----------------------------------------------------------------|
D|7-7-7-7-7-7-7-7-7-7-7-7-7-7-7-7-3-3-3-3-3-3-3-3-3-3-3-3-3-3-3-3-|

G|----------------------------------------------------------------|
D|----------------------------------------------------------------|
A|----------------------------------------------------------------|
D|7-7-7-7-7-7-7-7-7-7-7-7-7-7-7-7-3-3-3-3-3-3-3-3-5-5-5-5-5-5-5-5-|


Bridge:

G|----------------------------------------------------------------|
D|----------------------------------------------------------------|
A|----------------------------------------------------------------|
D|0-0-0-0-0-0-0-0-0-0-0-0-0-0-0-2-3-3-3-3-3-3-3-3-3-3-3-3-3-3-3-5-|

G|----------------------------------------------------------------|
D|------------------------5-5-5-5---------------------------------|
A|----------------3-3-3-3---------5-5-5-5-5-5-5-5-5-5-5-5-5-5-5-5-|
D|7-7-7-7-7-7-7-7-------------------------------------------------|

G|----------------------------------------------------------------|
D|----------------------------------------------------------------|
A|----------------------------------------------------------------|
D|0-0-0-0-0-0-0-0-0-0-0-0-0-0-0-2-3-3-3-3-3-3-3-3-3-3-3-3-3-3-3-5-|

G|----------------------------------------------------------------|
D|----------------------------------------------------------------|
A|----------------3-3-3-3-----------------------------------------|
D|7-7-7-7-7-7-7-7---------5-5-5-5-0-------------------------------|

G|----------------------------------------------------------------|
D|----------------------------------------------------------------|
A|----------------------------------------------------------------|
D|3~~~------------------------------------------------------------|

G|----------------------------------------------------------------|
D|----------------------------------------------------------------|
A|----------------------------------------------------------------|
D|3-----------------------0-------2-----------------------5-------|

G|----------------------------------------------------------------|
D|----------------------------------------------------------------|
A|----------------------------------------------------------------|
D|7-----------------------5-------3-------------------------------|

G|----------------------------------------------------------------|
D|----------------------------------------------------------------|
A|----------------------------------------------------------------|
D|3-----------------------0-------2-----------------------5-------|

G|----------------------------------------------------------------|
D|----------------------------------------------------------------|
A|----------------------------------------------------------------|
D|7-----------------------5-------3-------------------------------|

G|----------------------------------------------------------------|
D|----------------------------------------------------------------|
A|----------------------------------------------------------------|
D|3---3---3---3---3---3---0---0---2---2---2---2---2---2---5---5---|

G|----------------------------------------------------------------|
D|----------------------------------------------------------------|
A|----------------------------------------------------------------|
D|7---7---7---7---7---7---5---5---3---3---3---3---3-3-3-3-3-3-3-3-|

G|----------------------------------------------------------------|
D|----------------------------------------------------------------|
A|----------------------------------------------------------------|
D|3-3-3-3-3-3-3-3-3-3-3-3-0-0-0-0-2-2-2-2-2-2-2-2-2-2-2-2-5-5-5-5-|

G|----------------------------------------------------------------|
D|----------------------------------------------------------------|
A|----------------------------------------------------------------|
D|7-7-7-7-7-7-7-7-7-7-7-7-5-5-5-5-3-3-3-3-3-3-3-3-3-3-3-3-3-3-3-3-|

G|----------------------------------------------------------------|
D|----------------------------------------------------------------|
A|----------------------------------------------------------------|
D|3-3-3-3-3-3-3-3-3-3-3-3-0-0-0-0-2-2-2-2-2-2-2-2-2-2-2-2-5-5-5-5-|

G|----------------------------------------------------------------|
D|----------------------------------------------------------------|
A|----------------------------------------------------------------|
D|7-7-7-7-7-7-7-7-7-7-7-7-5-5-5-5-3-3-3-3-3-3-3-3-3-3-3-3-3-3-3-3-|

G|----------------------------------------------------------------|
D|----------------------------------------------------------------|
A|----------------------------------------------------------------|
D|3-3-3-3-3-3-3-3-3-3-3-3-0-0-0-0-2-2-2-2-2-2-2-2-2-2-2-2-5-5-5-5-|

G|----------------------------------------------------------------|
D|----------------------------------------------------------------|
A|----------------------------------------------------------------|
D|7-7-7-7-7-7-7-7-7-7-7-7-5-5-5-5-3-3-3-3-3-3-3-3-3-3-3-3-3-3-3-3-|

G|----------------------------------------------------------------|
D|----------------------------------------------------------------|
A|----------------------------------------------------------------|
D|3-3-3-3-3-3-3-3-3-3-3-3-0-0-0-0-2-2-2-2-2-2-2-2-2-2-2-2-5-5-5-5-|

G|----------------------------------------------------------------|
D|----------------------------------------------------------------|
A|----------------------------------------------------------------|
D|7-7-7-7-7-7-7-7-7-7-7-7-5-5-5-5-3-3-3-3-3-3-3-3-3-3-3-3-3-5-5-5-|

G|----------------------------------------------------------------|
D|----------------------------------------------------------------|
A|----------------------------------------------------------------|
D|7-------------------------------3-----------------------------3/|

G|----------------------------------------------------------------|
D|----------------------------------------------------------------|
A|----------------------------------------------------------------|
D|7-------------------------------3---------------5---------------|


Chorus:

G|----------------------------------------------------------------|
D|----------------------------------------------------------------|
A|----------------------------------------------------------------|
D|7-7-7-7-7-7-7-7-7-7-7-7-7-7-7-7-3-3-3-3-3-3-3-3-3-3-3-3-3-3-3-3-|

G|----------------------------------------------------------------|
D|----------------------------------------------------------5-----|
A|--------------------------------------------------------7---7\--|
D|7-7-7-7-7-7-7-7-7-7-7-7-7-7-7-7-3-3-3-3-3-3-3-3-5-5-5-5---------|

G|----------------------------------------------------------------|
D|----------------------------------------------------------------|
A|----------------------------------------------------------------|
D|7-7-7-7-7-7-7-7-7-7-7-7-7-7-7-7-3-3-3-3-3-3-3-3-3-3-3-3-3-3-3-3-|

G|----------------------------------------------------------------|
D|----------------------------------------------------------------|
A|----------------------------------------------------------------|
D|7-7-7-7-7-7-7-7-7-7-7-7-7-7-7-7-3-3-3-3-3-3-3-3-5-5-5-5-5-5-5-5-|


Outro:

G|----------------------------------------------------------------|
D|----------------------------------------------------------------|
A|----------------------------------------3-----------------------|
D|7-7-7---7\------7---7---7-7-7---3-3-3-3---3\------3-3---5-5-5-5-|

G|----------------------------------------------------------------|
D|----------------------------------------------------------------|
A|----------------------------------------------------------------|
D|7-7-7---7\------7---7---7-7-7---3-3-3-3-3-3-3-3-5-5-5-5-2-3-5-5-|

G|----------------------------------------------------------------|
D|----------------------------------------------------------------|
A|----------------------------------------3-----------------------|
D|7-7-7---7\------7---7---7-7-7---3-3-3-3---3\------3-3---5-5-5-5-|

G|----------------------------------------------------------------|
D|----------------------------------------------------------------|
A|----------------------------------------------------------------|
D|7-7-7---7\------7---7---7-7-7---3-3-3-3-3-3-3-3-5-5-5-5-5-5-5-5-|

G|----------------------------------------------------------------|
D|----------------------------------------------------------------|
A|----------------------------------------------------------------|
D|7-7\----------------------------7-7\----------------------------| x2


************************************

| \ Slide down
| ~ Vibrato
| / Slide up

************************************

Almost there ...

Sign in to get your own page with links to favourite songs and more. You are just one click away...

Login with Facebook Login with Google