Log in

One click and you are in

Login with Facebook Login with Google

Why sign up and log in

Guitar Tabs Explorer
Saosin bass tabs for Deep down

Bass tabs

------------------------------------------------------------------------------------
                  DEEP DOWN - Saosin
------------------------------------------------------------------------------------
Tabbed by: KGKing13
E-mail: KGaul95@hotmail.com

Tuning: D Tuning

1st Verse (Start at 0:26)
F|------------------------------------------------------------------------------|
C|---------------9---9-9-9-9-9-9------------------------12---12-12-12-12-12-12--|
G|-7-7-7-7-7-7-7-------------------10-10-10-10-10-10-10-------------------------|
D|------------------------------------------------------------------------------|
  1 + 2 + 3 + 4 + 1 + 2 + 3 + 4 + 1 + 2 + 3 + 4 + 1 + 2 + 3 + 4 +

F|-------------------------------------------------------------------4-4-4-4-------|
C|---------------9---9-9-9-9-9-9-----------------------------5-4-0-----------5-4-0-|
G|-7-7-7-7-7-7-7-------------------3-3-3-3-3-3-3-3---3-3-3-3-----------------------|
D|---------------------------------------------------------------------------------|
  1 + 2 + 3 + 4 + 1 + 2 + 3 + 4 + 1 + 2 + 3 + 4 + 1 + 2 + 3 + 4 + 1 + 2 + 3 + 4 +


Chorus
F|-------------------------------------------------------------------------|
C|-------------------------------------------------------------------------|
G|-7-7-7-7-7-7-7-7-10-10-10-10-10-10-10-10-------------------------5-5-5-5-|
D|-----------------------------------------8-8-8-8-8-8-8-8-3-3-3-3---------|
  1 + 2 + 3 + 4 + 1 + 2 + 3 + 4 + 1 + 2 + 3 + 4 + 1 + 2 + 3 + 4 +

F|-----------------------------------------------------------|
C|-----------------------------------------------------------|
G|---------------3/10-10-10-10-10-10-10-10-------------------|
D|-0-0-0-0-0-0-0---------------------------8-8-8-8-8-8-8-8-8~|
  1 + 2 + 3 + 4 + 1 + 2 + 3 + 4 + 1 + 2 + 3 + 4 + 1

Pre-verse
F|---------------------------------|
C|-----------------9-9-9-9-9-9-9-9-|
G|-7-7-7-7-7-7-7-7-----------------|
D|---------------------------------|
  1 + 2 + 3 + 4 + 1 + 2 + 3 + 4 +

F|-------------------------------------------------|
C|-------------------------12-12-12-12-12-12-12-12-|
G|-10-10-10-10-10-10-10-10-------------------------|
D|-------------------------------------------------|
  1 + 2 + 3 + 4 + 1 + 2 + 3 + 4 +

2nd Verse
F|-------------------------------------------------------------------------|
C|-------------------------------------------------------------------------|
G|-7---7---7-7---7---7-7---7-7-7---10---10---10-10---10---10-10---10-10-10-|
D|-------------------------------------------------------------------------|
  1 + 2 + 3 + 4 + 1 + 2 + 3 + 4 + 1 + 2 + 3 + 4 + 1 + 2 + 3 + 4 +

F|---------------------------------------------------------------|
C|---------------------------------------------------------------|
G|-7---7---7-7---7---7-7---7-7-7---3---3---3-3---3---3-3---3-5-5-|
D|---------------------------------------------------------------|
  1 + 2 + 3 + 4 + 1 + 2 + 3 + 4 + 1 + 2 + 3 + 4 + 1 + 2 + 3 + 4

F|-----------------------------------------------------------------|
C|-----------------------------------------------------------------|
G|-------------2-5-7-7-7-7-7-5-2-0-------------2-3-5-5-5-5-5-3-2---|
D|-0-0-0-0-0-3---------------------3-3-3-3-3-3-------------------3-|
  1 + 2 + 3 + 4 + 1 + 2 + 3 + 4 + 1 + 2 + 3 + 4 + 1 + 2 + 3 + 4 +

F|-----------------------------------------------------------------------------|
C|---------------------------------------------------------12-12-12-12-10-9----|
G|-------------2-5-7-7-7-7-7-5-5-5-3-3-3-10-10-10-12-12-12------------------10-|
D|-0-0-0-0-0-3-----------------------------------------------------------------|
  1 + 2 + 3 + 4 + 1 + 2 + 3 + 4 + 1 + 2 + 3 + 4 + 1 + 2 + 3 + 4 +

Chorus
F|-------------------------------------------------------------------------|
C|-------------------------------------------------------------------------|
G|-7-7-7-7-7-7-7-7-10-10-10-10-10-10-10-10-------------------------5-5-5-5-|
D|-----------------------------------------8-8-8-8-8-8-8-8-3-3-3-3---------|
  1 + 2 + 3 + 4 + 1 + 2 + 3 + 4 + 1 + 2 + 3 + 4 + 1 + 2 + 3 + 4 +

F|-------------------------------------------------------------------------|
C|-------------------------------------------------------------------------|
G|---------------3/10-10-10-10-10-10-10-10---------------------------------|
D|-0-0-0-0-0-0-0---------------------------8-8-8-8-8-8-8-8-8-7-7-7-7-7-3-2-|
  1 + 2 + 3 + 4 + 1 + 2 + 3 + 4 + 1 + 2 + 3 + 4 + 1 + 2 + 3 + 4 +

F|-------------------------------------------------------------------------|
C|-------------------------------------------------------------------------|
G|-7-7-7-7-7-7-7-7-10-10-10-10-10-10-10-10-------------------------5-5-5-5-|
D|-----------------------------------------8-8-8-8-8-8-8-8-3-3-3-3---------|
  1 + 2 + 3 + 4 + 1 + 2 + 3 + 4 + 1 + 2 + 3 + 4 + 1 + 2 + 3 + 4 +

F|---------------------------------------------------|
C|---------------------------------------------------|
G|---------------------------------3-3-3-3-3-3-3-3-3~|
D|-0-0-0-0-0-0-0-0-3-3-3-3-3-3-3-3-------------------|
  1 + 2 + 3 + 4 + 1 + 2 + 3 + 4 + 1 + 2 + 3 + 4 + 1

Interlude
F|----------------------------------------------------------------|
C|----------------------------------------------------------------|
G|-------------3-------------------------5h7p5-0-------0---333333-|
D|-0-----0-------------------------0------------------------------|
  1 + 2 + 3 + 4 + 1 + 2 + 3 + 4 + 1 + 2 + 3 + 4 + 1 + 2 + 3 + 4 +

F|-----------------------------------------------------------|
C|-----------------------------------------------------------|
G|-------------3-------------------------5h7p5-0-------0---3~|
D|-0-----0-------------------------0-------------------------|
  1 + 2 + 3 + 4 + 1 + 2 + 3 + 4 + 1 + 2 + 3 + 4 + 1 + 2 + 3


Bridge
F|-----------------------------------------------|
C|-----------------------------------------------|
G|-7~----------3~------------------7~----0~----3~|x2
D|-----------------------------------------------|
  1 + 2 + 3 + 4 + 1 + 2 + 3 + 4 + 1 + 2 + 3 + 4

F|-----------------------------------------------------------------|
C|-----------------------------------------------------------------|
G|-------------2-2-2-2-2-2-2-2-2-2-3-3-3-3-3-3-5-5-5-5-5-5-5-5-5-5-|
D|-0-0-0-0-0-0-----------------------------------------------------|
  1 + 2 + 3 + 4 + 1 + 2 + 3 + 4 + 1 + 2 + 3 + 4 + 1 + 2 + 3 + 4 +

F|-----------------------------------------------------------------|
C|-----------------------------------------------------------------|
G|-7-7-7-7-7-7-9-9-9-9-9-9-9-9-9-9---------------------------------|
D|---------------------------------5-5-5-5-5-5-8-8-8-8-8-8-8-8-8-8-|
  1 + 2 + 3 + 4 + 1 + 2 + 3 + 4 + 1 + 2 + 3 + 4 + 1 + 2 + 3 + 4 +

"Wash it away..." (Play at 2:46)
F|---------------|--------------|
C|---------------|--------------|
G|---------------|-2-2-2-2-3-5-0|
D|---------------|--------------|


Chorus
F|-------------------------------------------------------------------------|
C|-------------------------------------------------------------------------|
G|-7-7-7-7-7-7-7-7-10-10-10-10-10-10-10-10-------------------------5-5-5-5-|
D|-----------------------------------------8-8-8-8-8-8-8-8-3-3-3-3---------|
  1 + 2 + 3 + 4 + 1 + 2 + 3 + 4 + 1 + 2 + 3 + 4 + 1 + 2 + 3 + 4 +

F|-----------------------------------------------------------------------|
C|-----------------------------------------------------------------------|
G|---------------3/10-10-10-10-10-10-10-10-------------------------------|
D|-0-0-0-0-0-0-0---------------------------8-8-8-8-8-8-8-8-7-7-7-7-7-3-2-|
  1 + 2 + 3 + 4 + 1 + 2 + 3 + 4 + 1 + 2 + 3 + 4 + 1 + 2 + 3 + 4

F|-------------------------------------------------------------------------|
C|-------------------------------------------------------------------------|
G|-7-7-7-7-7-7-7-7-10-10-10-10-10-10-10-10-------------------------5-3-2---|
D|-----------------------------------------8-8-8-8-8-8-8-8-3-3-3-3-------3-|
  1 + 2 + 3 + 4 + 1 + 2 + 3 + 4 + 1 + 2 + 3 + 4 + 1 + 2 + 3 + 4 +

F|-----------------------------------------------------------------|
C|-----------------------------------------------------------------|
G|-----------------------------------------------------------------|
D|-0-0-0-0-2-2-2-2-3-3-3-3-7-7-7-8---8-8-8-8-8-8-8---8-8-8-8-8-8-0~|
  1 + 2 + 3 + 4 + 1 + 2 + 3 + 4 + 1 + 2 + 3 + 4 + 1 + 2 + 3 + 4 +

| / slide up
| \ slide down
| h hammer-on
| p pull-off
| ~ vibrato
| + harmonic
| x Mute note

Almost there ...

Sign in to get your own page with links to favourite songs and more. You are just one click away...

Login with Facebook Login with Google