Log in

One click and you are in

Login with Facebook Login with Google

Why sign up and log in

Guitar Tabs Explorer
Saosin bass tabs for Bury your head

Bass tabs

Band: saosin        or pretty damn close, listen to song for

Tuning: Drop-D      precision, enjoy


Intro/ chorus
G|--------------------------------------------------------------|
D|--------------------------------------------------------------|
A|---------------------44444444--------------------------4444---|
D|-4-444444444-0-00000----------4-444444444-2-22222-0000--------|
Verse 1
G|----------------------------------------------------------------|
D|----------------------------------------------------------------|
A|-5-7-9-9-9-9-444-4-4-4/777----------------777-7-7-555-5-5-------|
D|---------------------------77-7-7-7-7-7-7-----------------------|


Verse 1 continued…
|------------------------------------------------------------|
|------------------------------------------------------------|
|-9-9-9-9-9-9-9-9-444-4-4-4/777--------------777-7-7-555-5-5-|
|-------------------------------77-7-7-7-7-7-----------------|


Pre-chorus
G|----------------------------------------------------------------------|
D|----------------------------------------------------------------------|
A|-----------------------------------4444444444444444-------------------|
D|-0000000000000000-2222222222222222------------------44444444-22222222-|


Chorus
G|------------------------------------------------------------|
D|------------------------------------------------------------|
A|---------------------44444444-------------------------4444--|
D|-4-444444444-0-00000----------4-444444444-2-22222-0000------|

Verse 2
G|---------------------------------------------------------------|
D|---------------------------------------------------------------|
A|-9-9-9-9-9--------11-------------------14---------777-7-5-5-5--|
D|--------------11-11---11-11-11/14-14---14-14-------------------|


Verse 2 continued
|----------------------------------------------------------------|
|----------------------------------------------------------------|
|-9-9-9-9-9---------11-----------------------777-7-5-5-5---------|
|--------------11-11----11-11-11/14\7-7-7------------------------|


Bridge
G|-----------------------|
D|-----------------------|
A|-9-9-9-9-9\-999-9\-----|
D|-----------------------|

G|--------------------------------------------------------------------------|
D|--------------------------------------------------------------------------|
A|-------------------444444444444444444------------------77777777-55555555--| X3
D|-444444444444444444------------------777777777777777777-------------------|

Last Chorus
G|-------------------------------------------------------------|
D|-------------------------------------------------------------|
A|---------------------44444444--------------------------4444--|
D|-4-444444444-0-00000----------4-444444444-2-22222-0000-------|

Pt.2
|---------------------------------------------------------------------------------|
|---------------------------------------------------------------------------------|
|---------------------------------------------------------------------------------|
|-444-4-4-4-444-4-4-4-000-0-0-0-000-0-0-0-444-4-4-4-444-4-4-4-222-2-2-2-00000000--|


Outro
G|------------------------------|
D|------------------------------|
A|--------4444--------4-2-------|
D|-0000--------0000------4------|


intro/chorus

verse 1

pre-chorus

chorus x2

verse 2

pre-chorus

chorus x2

bridge x3
last chorus

Almost there ...

Sign in to get your own page with links to favourite songs and more. You are just one click away...

Login with Facebook Login with Google