Never Fade Away by Samuraï

Never Fade Away tab by Samuraï

Guitar tabs

Tuning: Standard (E A D G B E)

Intro (x2):

E|--------------------|--------------------|-----------0--------|--------0-----------|
B|-----------0--------|--------0-----------|--------0-----0-----|-----3-----3--------|
G|--------0-----0-----|-----0-----0-----0--|-----4-----------4--|--2-----------2-----|
D|-----5--------------|--4-----------4-----|--2-----------------|--------------------|
A|--3--------------2--|--------------------|--------------------|-----------------0--|
E|--------------------|--------------------|--------------------|--------------------|



Verse:

E|--------------3--3--2--|-----------------------|-----------0-----------|-----2--3--2--------0--|
B|-----------0-----------|--3-----0--------3--0--|--------0-----0--------|-----3-----------3-----|
G|--------0--------------|-----0--------0--------|-----4-----------4-----|--2-----------2--------|
D|-----5-----------------|--4--------4-----------|--2-----------------0--|-----------------------|
A|--3-----------------2--|-----------------------|-----------------------|-----------------------|
E|-----------------------|-----------------------|-----------------------|-----------------------|

E|--------3-----3--3--2--|--------------------|-----------0-----------|-----2--3--2-----------|
B|-----------0-----------|--3-----0--------3--|--------0-----0--------|-----3-----------3--3--|
G|-----------------------|-----0--------0-----|-----4-----------4-----|--2-----------2--------|
D|-----5-----------------|--4--------4--------|--2-----------------0--|-----------------------|
A|--3-----------------2--|--------------------|-----------------------|-----------------------|
E|-----------------------|--------------------|-----------------------|-----------------------|

Find guitar tabs and chords

A B C D E F G H I J K L M N O P Q R S T U V W X Y Z #