Log in

One click and you are in

Login with Facebook Login with Google

Why sign up and log in

Guitar Tabs Explorer
Sam The Sham bass tabs for Wooly bully

Bass tabs

Tuning : E A D G 	Time Signature: 4/4

  |       |       |       |          |       |       |       |
|-0---------------0----------------|-0-------0-------0-------0--------|
|----------------------------------|----------------------------------|
|----------------------------------|----------------------------------|
|----------------------------------|----------------------------------|

  |       |       |       |          |       |       |       |
|-0-------0-------0-------0--------|-0---0---0------------------------|
|----------------------------------|-------------3---0---0---3---4----|
|----------------------------------|----------------------------------|
|----------------------------------|----------------------------------|

  |       |       |       |          |       |       |       |
|-0---0---0------------------------|-0---0---0------------------------|
|-------------3---0---0---3---4----|-------------3---0---0---3---4----|
|----------------------------------|----------------------------------|
|----------------------------------|----------------------------------|

  |       |       |       |          |       |       |       |
|-0---0---0------------------------|---------0---0-----------0---0----|
|-------------3---0---0---3---4----|----------------------------------|
|----------------------------------|-3---3-----------3---3------------|
|----------------------------------|----------------------------------|

  |       |       |       |          |       |       |       |
|---------0---0--------------------|-0---0---0------------------------|
|-------------------------2---3----|-------------3---0---0---3---4----|
|-3---3-----------3---3------------|----------------------------------|
|----------------------------------|----------------------------------|

  |       |       |       |          |       |       |       |
|-0---0---0------------------------|---------2---2-----------2---2----|
|-------------3---0---0---3---4----|-0---0-----------0---0------------|
|----------------------------------|----------------------------------|
|----------------------------------|----------------------------------|

  |       |       |       |          |       |       |       |
|---------0---0--------------------|-0---0---0------------------------|
|-------------------------3---4----|-------------3---0---0---3---4----|
|-3---3-----------3---3------------|----------------------------------|
|----------------------------------|----------------------------------|

  |       |       |       |          |       |       |       |
|-0---0---0------------------------|-0---0---0------------------------|
|-------------3---0---0---3---4----|-------------3---0---0---3---4----|
|----------------------------------|----------------------------------|
|----------------------------------|----------------------------------|

  |       |       |       |          |       |       |       |
|-0---0---0------------------------|-0---0---0------------------------|
|-------------3---0---0---3---4----|-------------3---0---0---3---4----|
|----------------------------------|----------------------------------|
|----------------------------------|----------------------------------|

  |       |       |       |          |       |       |       |
|-0---0---0------------------------|-0---0---0------------------------|
|-------------3---0---0---3---4----|-------------3---0---0---3---4----|
|----------------------------------|----------------------------------|
|----------------------------------|----------------------------------|

  |       |       |       |          |       |       |       |
|-----0---0------------------------|-0---0---0------------------------|
|-------------3---0---0---3---4----|-------------3---0---0---3---4----|
|----------------------------------|----------------------------------|
|----------------------------------|----------------------------------|

  |       |       |       |          |       |       |       |
|---------0---0-----------0---0----|---------0---0--------------------|
|----------------------------------|-------------------------2---3----|
|-3---3-----------3---3------------|-3---3-----------3---3------------|
|----------------------------------|----------------------------------|

  |       |       |       |          |       |       |       |
|-0---0---0------------------------|-0---0---0------------------------|
|-------------3---0---0---3---4----|-------------3---0---0---3---4----|
|----------------------------------|----------------------------------|
|----------------------------------|----------------------------------|

  |       |       |       |          |       |       |       |
|---------2---2-----------2---2----|---------0---0--------------------|
|-0---0-----------0---0------------|-------------------------3---4----|
|----------------------------------|-3---3-----------3---3------------|
|----------------------------------|----------------------------------|

  |       |       |       |          |       |       |       |
|-0---0---0------------------------|----------------------------------|
|-------------3---0---0---3---4----|-----0-------0-------0---0--------|
|----------------------------------|----------------------------------|
|----------------------------------|----------------------------------|

  |       |       |       |          |       |       |       |
|-0---0---0------------------------|-0---0---0------------------------|
|-------------3---0---0---3---4----|-------------3---0---0---3---4----|
|----------------------------------|----------------------------------|
|----------------------------------|----------------------------------|

  |       |       |       |          |       |       |       |
|-0---0---0------------------------|-0---0---0------------------------|
|-------------3---0---0---3---4----|-------------3---0---0---3---4----|
|----------------------------------|----------------------------------|
|----------------------------------|----------------------------------|

  |       |       |       |          |       |       |       |
|-0---0---0------------------------|-0---0---0------------------------|
|-------------3---0---0---3---4----|-------------3---0---0---3---4----|
|----------------------------------|----------------------------------|
|----------------------------------|----------------------------------|

  |       |       |       |          |       |       |       |
|-0---0---0------------------------|---------0---0-----------0---0----|
|-------------3---0---0---3---4----|----------------------------------|
|----------------------------------|-3---3-----------3---3------------|
|----------------------------------|----------------------------------|

  |       |       |       |          |       |       |       |
|---------0---0--------------------|-0---0---0------------------------|
|-------------------------2---3----|-------------3---0---0---3---4----|
|-3---3-----------3---3------------|----------------------------------|
|----------------------------------|----------------------------------|

  |       |       |       |          |       |       |       |
|-0---0---0------------------------|---------2---2-----------2---2----|
|-------------3---0---0---3---4----|-0---0-----------0---0------------|
|----------------------------------|----------------------------------|
|----------------------------------|----------------------------------|

  |       |       |       |          |       |       |       |
|---------0---0--------------------|-0---0---0------------------------|
|-------------------------3---4----|-------------3---0---0---3---4----|
|-3---3-----------3---3------------|----------------------------------|
|----------------------------------|----------------------------------|

  |       |       |       |          |       |       |       |
|----------------------------------|-0---------------0----------------|
|-----0-------0-------0---0--------|----------------------------------|
|----------------------------------|----------------------------------|
|----------------------------------|----------------------------------|

  |       |       |       |          |       |       |       |
|-0-------0-------0-------0--------|-0-------0-------0-------0--------|
|----------------------------------|----------------------------------|
|----------------------------------|----------------------------------|
|----------------------------------|----------------------------------|

  |       |       |       |          |       |       |       |
|-0---0---0------------------------|-0---0---0------------------------|
|-------------3---0---0---3---4----|-------------3---0---0---3---4----|
|----------------------------------|----------------------------------|
|----------------------------------|----------------------------------|

  |       |       |       |          |       |       |       |
|-0---0---0------------------------|-0---0---0------------------------|
|-------------3---0---0---3---4----|-------------3---0---0---3---4----|
|----------------------------------|----------------------------------|
|----------------------------------|----------------------------------|

  |       |       |       |          |       |       |       |
|---------0---0-----------0---0----|---------0---0--------------------|
|----------------------------------|-------------------------2---3----|
|-3---3-----------3---3------------|-3---3-----------3---3------------|
|----------------------------------|----------------------------------|

  |       |       |       |          |       |       |       |
|-0---0---0------------------------|-0---0---0------------------------|
|-------------3---0---0---3---4----|-------------3---0---0---3---4----|
|----------------------------------|----------------------------------|
|----------------------------------|----------------------------------|

  |       |       |       |          |       |       |       |
|---------2---2-----------2---2----|---------0---0--------------------|
|-0---0-----------0---0------------|-------------------------3---4----|
|----------------------------------|-3---3-----------3---3------------|
|----------------------------------|----------------------------------|

  |       |       |       |          |       |       |       |
|-0---0---0------------------------|-0---0---0------------------------|
|-------------3---0---0---3---4----|-------------3---0---0---3---4----|
|----------------------------------|----------------------------------|
|----------------------------------|----------------------------------|

  |       |       |       |          |       |       |       |
|-0---0---0------------------------|-0---0---0------------------------|
|-------------3---0---0---3---4----|-------------3---0---0---3---4----|
|----------------------------------|----------------------------------|
|----------------------------------|----------------------------------|

  |       |       |       |          |       |       |       |
|-0---0---0------------------------|-0---0---0------------------------|
|-------------3---0---0---3---4----|-------------3---0---0---3---4----|
|----------------------------------|----------------------------------|
|----------------------------------|----------------------------------|

  |       |       |       |          |       |       |       |
|-0---0---0------------------------|-0---0---0------------------------|
|-------------3---0---0---3---4----|-------------3---0---0---3---4----|
|----------------------------------|----------------------------------|
|----------------------------------|----------------------------------|

  |       |       |       |          |       |       |       |
|-0---0---0------------------------|---------0---0-----------0---0----|
|-------------3---0---0---3---4----|----------------------------------|
|----------------------------------|-3---3-----------3---3------------|
|----------------------------------|----------------------------------|

  |       |       |       |          |       |       |       |
|---------0---0--------------------|-0---0---0------------------------|
|-------------------------2---3----|-------------3---0---0---3---4----|
|-3---3-----------3---3------------|----------------------------------|
|----------------------------------|----------------------------------|

  |       |       |       |          |       |       |       |
|-0---0---0------------------------|---------2---2-----------2---2----|
|-------------3---0---0---3---4----|-0---0-----------0---0------------|
|----------------------------------|----------------------------------|
|----------------------------------|----------------------------------|

  |       |       |       |          |       |       |       |
|---------0---0--------------------|-0---0---0------------------------|
|-------------------------3---4----|-------------3---0---0---3---4----|
|-3---3-----------3---3------------|----------------------------------|
|----------------------------------|----------------------------------|

  |       |       |       |          |       |       |       |
|----------------------------------|-0---------------0----------------|
|-----0-------0-------0---0--------|----------------------------------|
|----------------------------------|----------------------------------|
|----------------------------------|----------------------------------|

  |       |       |       |          |       |       |       |
|-0-------0-------0-------0--------|-0-------0-------0-------0--------|
|----------------------------------|----------------------------------|
|----------------------------------|----------------------------------|
|----------------------------------|----------------------------------|

  |       |       |       |
|-0--------------------------------|
|----------------------------------|
|----------------------------------|
|----------------------------------|

Almost there ...

Sign in to get your own page with links to favourite songs and more. You are just one click away...

Login with Facebook Login with Google