Log in

One click and you are in

Login with Facebook Login with Google

Why sign up and log in

Guitar Tabs Explorer
Saint Motel bass tabs for Puzzle pieces

Bass tabs

Puzzle Pieces-Saint Motel (Bass Tab)


Tuning:Standard

____________________________________________________________________________________

Intro: (0:08-0:16)

G|------------------------------------|--------------------------------------------------|
D|------------------------------------|--------------------------------------------------|
A|--8-8-8--8-8-8-8--8-8-8--8-8-8-8-9--|--10-10-10--10-10-10-10--10-10-10--10-10-10-10-9--|
E|------------------------------------|--------------------------------------------------|


Verse 1: (0:16-0:49) (Play x2)

G|--------------------------|---------------------------------|
D|--------------------------|------------------------------7--|
A|--8---8-8---8--8--8-8--9--|--10---10-10---10--10--10-10-----|
E|--------------------------|---------------------------------|

G|--------------------------|-----------------------|
D|--8-----------------7-----|-----------------------|
A|--------------------------|--8---8-8--------------|
E|------6-6---6--6--6----6--|--------------1--------|


Chorus: (0:50-1:06)

G|------------------------------------|--------------------------------------------------|
D|------------------------------------|--------------------------------------------------|
A|--8-8-8--8-8-8-8--8-8-8--8-8-8-8-9--|--10-10-10--10-10-10-10--10-10-10--10-10-10-10-9--|
E|------------------------------------|--------------------------------------------------|

G|------------------------------------|--------------------------------------------------|
D|------------------------------------|--------------------------------------------------|
A|--8-8-8--8-8-8-8--8-8-8--8-8-8-8-9--|--10-10-10--10-10-10-10--10-10-10--10-10-10-10----|
E|------------------------------------|--------------------------------------------------|

Post-Chorus: (1:07-1:34)

G|------------------------|------------------------|------------------------|
D|------------------------|---------------------7--|--7-7-7---7--8-8-8---8--|
A|------------------------|------------5-5-5-5/----|------------------------|
E|--5-5-5---5--6-6-6---6--|--8-8-8--8--------------|------------------------|

G|---------------------|------------------------------------------|
D|--10-10-10---10/11/--|--12-12-12-12-12-12\----------------------|
A|---------------------|--------------------5----5-5-5-5-5-5-5-5--|
E|---------------------|------------------------------------------|

G|-----------------------------------|---------------------------------------|
D|-----------------------------------|--------------------------15-15-15-15--|
A|--8-8-8-8-8-8-8-8-8-8-8-8-8-8-8-8--|--8-8-8-8-8-8-8-8-8-8-8-8/-------------|
E|-----------------------------------|---------------------------------------|


Bridge: (1:42-1:50)

G|------------------------------------|--------------------------------------------------|
D|------------------------------------|--------------------------------------------------|
A|--8-8-8--8-8-8-8--8-8-8--8-8-8-8-9--|--10-10-10--10-10-10-10--10-10-10--10-10-10-10-9--|
E|------------------------------------|--------------------------------------------------|


Verse 2: (1:51-2:23)

G|--------------------------|---------------------------------|
D|--------------------------|------------------------------7--|
A|--8---8-8---8--8--8-8--9--|--10---10-10---10--10--10-10-----|
E|--------------------------|---------------------------------|

G|--------------------------|-----------------------|
D|--8-----------------7-----|-----------------------|
A|--------------------------|--8---8-8--------------|
E|------6-6---6--6--6----6--|--------------1--------|

G|-------------------------------|---------------------------------------|
D|--------------------10-10------|--------------------------12-12--------|
A|--8---8-8---8--8--8-------8-9--|--10---10-10---10--10--10-------10-12--|
E|-------------------------------|---------------------------------------|

G|--------------------------|-----------------------|
D|--8-----------------7-----|-----------------------|
A|--------------------------|--8---8-8--------------|
E|------6-6---6--6--6----6--|--------------1--------|


Chorus: (2:24-2:40)

G|------------------------------------|--------------------------------------------------|
D|------------------------------------|--------------------------------------------------|
A|--8-8-8--8-8-8-8--8-8-8--8-8-8-8-9--|--10-10-10--10-10-10-10--10-10-10--10-10-10-10-9--|
E|------------------------------------|--------------------------------------------------|

G|------------------------------------|--------------------------------------------------|
D|------------------------------------|--------------------------------------------------|
A|--8-8-8--8-8-8-8--8-8-8--8-8-8-8-9--|--10-10-10--10-10-10-10--10-10-10--10-10-10-10----|
E|------------------------------------|--------------------------------------------------|


Post-Chorus: (2:41-3:08)

G|------------------------|------------------------|------------------------|
D|------------------------|---------------------7--|--7-7-7---7--8-8-8---8--|
A|------------------------|------------5-5-5-5/----|------------------------|
E|--5-5-5---5--6-6-6---6--|--8-8-8--8--------------|------------------------|

G|---------------------|------------------------------------------|
D|--10-10-10---10/11/--|--12-12-12-12-12-12\----------------------|
A|---------------------|--------------------5----5-5-5-5-5-5-5-5--|
E|---------------------|------------------------------------------|

G|-----------------------------------|---------------------------------------|
D|-----------------------------------|--------------------------15-15-15-15--|
A|--8-8-8-8-8-8-8-8-8-8-8-8-8-8-8-8--|--8-8-8-8-8-8-8-8-8-8-8-8/-------------|
E|-----------------------------------|---------------------------------------|


Outro: (3:18-3:44)

G|------------------------------------|--------------------------------------------------|
D|------------------------------------|--------------------------------------------------| (Play x2)
A|--8-8-8--8-8-8-8--8-8-8--8-8-8-8-9--|--10-10-10--10-10-10-10--10-10-10--10-10-10-10-9--|
E|------------------------------------|--------------------------------------------------|

G|------------------------------------|--------------------------------------------------|
D|------------------------------------|--------------------------------------------------|
A|--8-8-8--8-8-8-8--8-8-8--8-8-8-8-9--|--10-10-10--10-10-10-10--10-10-10--10-10/12\10\8--|
E|------------------------------------|--------------------------------------------------|


************************************

| /  Slide up
| \  Slide down

************************************

Almost there ...

Sign in to get your own page with links to favourite songs and more. You are just one click away...

Login with Facebook Login with Google