Log in

One click and you are in

Login with Facebook Login with Google

Why sign up and log in

Guitar Tabs Explorer
Saint Motel bass tabs for Preach

Bass tabs

Tuning: Standard (E A D G)

Tabbed and Timed from https://www.youtube.com/watch v=R2qyTZuf3H0


Intro: (0:00)
G|-------------------------|-------------------|-----------------------|----------------|
D|-------------------------|-------------------|--------------------/7-|-7--7-7-7~---5~-|
A|---------8----8--------7-|-------------------|----8----8--------7----|----------------|
E|-1/13\----------8--10----|-5--5--5-5-5~---3~-|-----------8--10-------|----------------|
G|-----------------|--------------------|-------------------------|---------------------|
D|-----------------|---------------7--5-|---------------------/7~-|---------------------|
A|-8----8--------7-|--------------------|----8----8--------7------|---------------------|
E|--------8--10----|-5--5--5-5-5-5--3---|-----------8--10---------|---------------1/13\-|


Verse 1: (0:17)
G|-----------------|-------------------|-----------------------|----------------|
D|-----------------|-------------------|--------------------/7-|-7--7-7-7~---5~-|
A|-8----8--------7-|-------------------|----8----8--------7----|----------------|
E|--------8--10----|-5--5--5-5-5~---3~-|-----------8--10-------|----------------|

G|-----------------|--------------------|-----------------------|-----------------------|
D|-----------------|---------------7--5-|-----------------------|-----------------------|
A|-8----8--------7-|--------------------|----8----8--------7----|-----------------------|
E|--------8--10----|-5--5--5-5-5-5--3---|-----------8--10-----5-|--5-5------------1/13\-|

G|-----------------|--------------------|-------------------------|---------------------|
D|-----------------|---------------7--5-|---------------------/7~-|---------------------|
A|-8----8--------7-|--------------------|----8----8--------7------|---------------------|
E|--------8--10----|-5--5--5-5-5-5--3---|-----------8--10---------|---------------1/13\-|


Chorus: (0:42)
G|-----------------|--------------------|-----------------------|----------------|
D|-----------------|---------------7--5-|--------------------/7-|-7--7-7-7~---5~-|
A|-8----8--------7-|--------------------|----8----8--------7----|----------------|
E|--------8--10----|-5--5--5-5-5-5--3---|-----------8--10-------|----------------|

G|-----------------|-------------------|------------------------|---------------|
D|-----------------|-------------------|------------------------|-7---7---------|
A|-8----8--------7-|-------------------|----8----8--------7-----|---------------|
E|--------8--10----|-5--5--5-5-5~---3~-|-----------8--10-----5~-|---5-----0-3-4-|


Verse 2: (0:58)
G|-----------------|--------------------|-----------------------|-----------------|
D|-----------------|---------------7--5-|-----------------------|-----------------|
A|-8----8--------7-|--------------------|----8----8--------7----|-----------------|
E|--------8--10----|-5--5--5-5-5-5--3---|-----------8--10-----5-|-5--5-5-5--------|

G|-----------------|-------------------|------------------------|----------------------|
D|-----------------|-------------------|--------------------/7~-|----------------------|
A|-8----8--------7-|-------------------|----8----8--------7-----|----------------------|
E|--------8--10----|-5--5--5-5-5~---3~-|-----------8--10--------|----------------1/13\-|

G|-----------------|-------------------|------------------------|----------------------|
D|-----------------|-------------------|--------------------/7~-|-----7---7------------|
A|-8----8--------7-|-------------------|----8----8--------7-----|----------------------|
E|--------8--10----|-5--5--5-5-5~---3~-|-----------8--10--------|----------------1/13\-|


Chorus: (1:23)
G|-----------------|--------------------|-----------------------|-------------------|
D|-----------------|---------------7--5-|--------------------/7-|--7--7--7----7---5-|
A|-8----8--------7-|--------------------|----8----8--------7----|-------------------|
E|--------8--10----|-5--5--5-5-5-5--3---|-----------8--10-------|-----------5---3---|

G|-----------------|--------------------|--------------------|----------------------|
D|-----------------|---------------7--5-|--------------------|---7---7-----5-6-7~-\-|
A|-8----8--------7-|--------------------|----8----8--------7-|---------5-7----------|
E|--------8--10----|-5--5--5-5-5-5--3---|-----------8--10----|-5---5----------------|

G|-----------------|--------------------|-----------------------|----------------|
D|-----------------|---------------7--5-|--------------------/7-|-7--7-7-7~---5~-|
A|-8----8--------7-|--------------------|----8----8--------7----|----------------|
E|--------8--10----|-5--5--5-5-5-5--3---|-----------8--10-------|----------------|

G|-----------------|--------------------|--------------------|----------------------|
D|-----------------|---------------7--5-|--------------------|---7---7-----5-6-7~-\-|
A|-8----8--------7-|--------------------|----8----8--------7-|---------5-7----------|
E|--------8--10----|-5--5--5-5-5-5--3---|-----------8--10----|-5---5----------------|


Bridge: (1:56)
G|----------|-------|------------|--------|-----------|-----------------|------|
D|----------|-------|------------|--------|-----------|-----------------|------|
A|-5~-------|-------|-/10~-------|--------|-\3~-------|-----------------|-2--3-|
E|----------|-------|------------|--------|-----------|--------5~-------|------|

G|------7~--|---------|----------7/9\7----|--------|----------|----------|---------|
D|----------|-----7-6-|-5~-------------7/-|-10~----|----------|----------|---------|
A|-5~-------|---------|-------------------|--------|----------|----------|---------|
E|----------|---------|-------------------|--------|-8-8--8-8-|-8-8--8-8-|-8-1/13\-|

G|-----------------|--------------------|-----------------------|------------5/7-5----|
D|-----------------|---------------7--5-|--------------------/7-|--x-----5h7-------7~-|
A|-8--8--x-------7-|--------------------|----8--8--x-------7----|----5h7--------------|
E|--------8--10----|-5--5--5-5-5-5--3---|-----------8--10-------|---------------------|

G|-----------------|--------------------|-----------------------|------------5/7-5----|
D|-----------------|---------------7--5-|--------------------/7-|--x-----5h7-------7~-|
A|-8--8--x-------7-|--------------------|----8--8--x-------7----|----5h7--------------|
E|--------8--10----|-5--5--5-5-5-5--3---|-----------8--10-------|---------------------|


Chorus: (2:29)
G|-----------------|-------------------|-----------------------|----------------|
D|-----------------|-------------------|--------------------/7-|-7--7-7-7~---5~-|
A|-8----8--------7-|-------------------|----8----8--------7----|----------------|
E|--------8--10----|-5--5--5-5-5~---3~-|-----------8--10-------|----------------|

G|-----------------|-------------------|-----------------------|-----------------------|
D|-----------------|-------------------|-----------------------|-----------------------|
A|-8----8--------7-|-------------------|----8----8--------7----|-----------------------|
E|--------8--10----|-5--5--5-5-5~---3~-|-----------8--10-----5-|--5-5------------1/13\-|


Outro: (2:45)
G|-----------------|-------------------|----------------------------|----------------14p12------|
D|-----------------|---7----7----------|------5h6h7p5------------/7-|-7--7-7-7/12h14-------14\7-| (Yeh this
A|-8----8--------7-|-------------------|----8---------8--------7----|---------------------------| bit is
E|--------8--10----|-5----5----5~---3~-|----------------8--10-------|---------------------------| hard)

G|-----------------|--------------------|----------------------------|--------------------------|
D|-----------------|---------------7----|------5h6h7p5------------/7-|-7--7-7---7~---5~---------|
A|-8----8--------7-|--------------------|----8---------8--------7----|--------------------------|
E|--------8--10----|-5--5--5-5-5-5--x3~-|----------------8--10-------|--------------------------|



************************************

| / Slide up
| ~ Hold Note
| \ Slide down
| h Hammer-On
| p Pull-Off

************************************

Almost there ...

Sign in to get your own page with links to favourite songs and more. You are just one click away...

Login with Facebook Login with Google