Log in

One click and you are in

Login with Facebook Login with Google

Why sign up and log in

Guitar Tabs Explorer
Saint Motel bass tabs for At least i have nothing

At Least I Have Nothing bass tab by Saint Motel

Saint Motel bass tabs for At least i have nothing

Bass tabs

-------------------------------------------------------------------------------
           At Least I Have Nothing - Saint Motel
-------------------------------------------------------------------------------
Tabbed by: Carlos C (Caboolean)
E-mail: carlos@cerrillostech.com
Tuning: E Standard

The quieter parts during the intro and verse are more clearly
heard in their live acoustic version.


[Intro 0:13]

Play Soft
G|---------------------------------|---------------------------------|
D|-12--12--12--12--12--12--12--12--|-12--12--12--12--12--12--12--12--|
A|---------------------------------|---------------------------------|
E|---------------------------------|---------------------------------|

G|---------------------------------|---------------------------------|
D|-9---9---9---9---9---9---9---9---|-11--11--11--11--11--11--11--11--|
A|---------------------------------|---------------------------------|
E|---------------------------------|---------------------------------|


[Verse 0:22]

Play Soft
G|--------|------------|--------|--------|
D|-12-----|-----12-----|-9------|-11-----|
A|--------|------------|--------|--------|
E|--------|------------|--------|--------| x2

[Pre Chorus 0:41]

Play Soft
G|---------------------------------|---------------------------------|
D|-12--12--12--12--12--12--12--12--|-12--12--12--12--12--12--12--12--|
A|---------------------------------|---------------------------------|
E|---------------------------------|---------------------------------|
                           Louder
G|---------------------------------|-----------------------------------|
D|-9---9---9---9---9---9---9---9---|-11--------------------------------|
A|---------------------------------|-----------------4------4------4---|
E|---------------------------------|-----------------------------------|


[Chorus 0:50]

G|---------------------------------|---------------------------------|
D|---------------------------------|---------------------------------|
A|-5---5---5---5---5---5---5---5---|-5---5---5---5---5---5---5---5---|
E|---------------------------------|---------------------------------|

G|---------------------------------|---------------------------------|
D|-4---4---4---4---4---4---4---4---|-7---7---7---7---7---7---7---7---|
A|---------------------------------|---------------------------------|
E|---------------------------------|---------------------------------|


G|---------------------------------|---------------------------------|
D|---------------------------------|---------------------------------|
A|-5---5---5---5---5---5---5---5---|-5---5---5---5---5---5---5---5---|
E|---------------------------------|---------------------------------|

G|---------------------------------|---------------------------------|
D|-4---4---4---4---4---4---4---4---|-7-------7-------7-------7-------|
A|---------------------------------|-----7-------7-------7-------7---|
E|---------------------------------|---------------------------------|


G|---------------------------------|---------------------------------|
D|---------------------------------|---------------------------------|
A|-5---5---5---5---5---5---5---5---|-5---5---5---5---5---5---5---5---|
E|---------------------------------|---------------------------------|

G|---------------------------------|---------------------------------|
D|---------------------------------|---------------------------------|
A|-7---7---7---7---7---7---7---7---|-7---7---7---7---7---4---4---4---|
E|---------------------------------|---------------------------------|

[Pre Verse 1:17]

Play Soft
G|---------------------------------|---------------------------------|
D|-12--12--12--12--12--12--12--12--|-12--12--12--12--12--12--12--12--|
A|---------------------------------|---------------------------------|
E|---------------------------------|---------------------------------|


G|---------------------------------|---------------------------------|
D|-9---9---9---9---9---9---9---9---|-11--11--11--11--11--11--11--11--|
A|---------------------------------|---------------------------------|
E|---------------------------------|---------------------------------|


[Verse]

Play Soft
G|--------|------------|--------|--------|
D|-12-----|-----12-----|-9------|-11-----|
A|--------|------------|--------|--------|
E|--------|------------|--------|--------| x2


[Pre Chorus 1:15]

Play Soft
G|---------------------------------|---------------------------------|
D|-12--12--12--12--12--12--12--12--|-12--12--12--12--12--12--12--12--|
A|---------------------------------|---------------------------------|
E|---------------------------------|---------------------------------|
                           Louder
G|---------------------------------|-----------------------------------|
D|-9---9---9---9---9---9---9---9---|-11--------------------------------|
A|---------------------------------|-----------------4------4------4---|
E|---------------------------------|-----------------------------------|


[Chorus 1:54]

G|---------------------------------|---------------------------------|
D|---------------------------------|---------------------------------|
A|-5---5---5---5---5---5---5---5---|-5---5---5---5---5---5---5---5---|
E|---------------------------------|---------------------------------|

G|---------------------------------|---------------------------------|
D|-4---4---4---4---4---4---4---4---|-7---7---7---7---7---7---7---7---|
A|---------------------------------|---------------------------------|
E|---------------------------------|---------------------------------|


G|---------------------------------|---------------------------------|
D|---------------------------------|---------------------------------|
A|-5---5---5---5---5---5---5---5---|-5---5---5---5---5---5---5---5---|
E|---------------------------------|---------------------------------|

G|---------------------------------|---------------------------------|
D|-4---4---4---4---4---4---4---4---|-7-------7-------7-------7-------|
A|---------------------------------|-----7-------7-------7-------7---|
E|---------------------------------|---------------------------------|


G|---------------------------------|---------------------------------|
D|---------------------------------|---------------------------------|
A|-5---5---5---5---5---5---5---5---|-5---5---5---5---5---5---5---5---|
E|---------------------------------|---------------------------------|

G|---------------------------------|---------------------------------|
D|---------------------------------|---------------------------------|
A|-7---7---7---7---7---7---7---7---|-7---7---7---7---7---4---4---4---|
E|---------------------------------|---------------------------------|


G|---------------------------------|---------------------------------|
D|-----------------12------12------|-----------------12------12------|
A|-5---5---5--/12------12------12--|-5---5---5--/12------12------12--|
E|---------------------------------|---------------------------------|

G|---------------------------------|---------------------------------|
D|-----------------14------14------|---------------------------------|
A|-7---7---7--/14------14------14--|-7---7---7---7---7---4---4---4---|
E|---------------------------------|---------------------------------|


[Break 2:31]

G|-------------------------------------|-------------------------------------|
D|-12--------------12----0-12----0-12--|-----------------12----0-12----0-9---|
A|-------------------------------------|-------------------------------------|
E|-------------------------------------|-------------------------------------|

G|-------------------------------------|-------------------------------------|
D|-----------------9-----0-9-----0-11--|-----------------11----0-11----0-12--|
A|-------------------------------------|-------------------------------------|
E|-------------------------------------|-------------------------------------|


G|-------------------------------------|-------------------------------------|
D|-----------------12----0-12----0-12--|-----------------12----0-12----0-9---|
A|-------------------------------------|-------------------------------------|
E|-------------------------------------|-------------------------------------|

G|-------------------------------------|-------------------------------------|
D|-----------------9-----0-9-----0-11--|-----------------11----0-11----0-12--|
A|-------------------------------------|-------------------------------------|
E|-------------------------------------|-------------------------------------|


[Pre Chorus 2:49]

Play Soft
G|---------------------------------|---------------------------------|
D|-12--12--12--12--12--12--12--12--|-12--12--12--12--12--12--12--12--|
A|---------------------------------|---------------------------------|
E|---------------------------------|---------------------------------|
                           Louder
G|---------------------------------|-----------------------------------|
D|-9---9---9---9---9---9---9---9---|-11--------------------------------|
A|---------------------------------|-----------------4------4------4---|
E|---------------------------------|-----------------------------------|


[Chorus 2:58]

G|---------------------------------|---------------------------------|
D|---------------------------------|---------------------------------|
A|-5---5---5---5---5---5---5---5---|-5---5---5---5---5---5---5---5---|
E|---------------------------------|---------------------------------|

G|---------------------------------|---------------------------------|
D|-4---4---4---4---4---4---4---4---|-7---7---7---7---7---7---7---7---|
A|---------------------------------|---------------------------------|
E|---------------------------------|---------------------------------|


G|---------------------------------|---------------------------------|
D|---------------------------------|---------------------------------|
A|-5---5---5---5---5---5---5---5---|-5---5---5---5---5---5---5---5---|
E|---------------------------------|---------------------------------|

G|---------------------------------|---------------------------------|
D|-4---4---4---4---4---4---4---4---|-7-------7-------7-------7-------|
A|---------------------------------|-----7-------7-------7-------7---|
E|---------------------------------|---------------------------------|


G|---------------------------------|---------------------------------|
D|-----------------12------12------|-----------------12------12------|
A|-5---5---5--/12------12------12--|-5---5---5--/12------12------12--|
E|---------------------------------|---------------------------------|

G|---------------------------------|---------------------------------|
D|-----------------14------14------|---------------------------------|
A|-7---7---7--/14------14------14--|-7---7---7---7---7---4---4---4---|
E|---------------------------------|---------------------------------|


G|---------------------------------|---------------------------------|
D|-----------------12------12------|-----------------12------12------|
A|-5---5---5--/12------12------12--|-5---5---5--/12------12------12--|
E|---------------------------------|---------------------------------|

G|---------------------------------|---------------------------------|
D|-----------------14------14------|---------------------------------|
A|-7---7---7--/14------14------14--|-7---7---7---7---7---4---4---4---|
E|---------------------------------|---------------------------------|


G|---------------------------------|
D|---------------------------------|
A|-5-------------------------------|
E|---------------------------------|


************************************
| /  Slide up

Almost there ...

Sign in to get your own page with links to favourite songs and more. You are just one click away...

Login with Facebook Login with Google