Log in

One click and you are in

Login with Facebook Login with Google

Why sign up and log in

Guitar Tabs Explorer
Saigon Kick tabs for Freedom

Guitar tabs with lyrics

Tuning: Drop "D" AND down one half step



Guitar - rhythm


     S S S   S A chord diagramE MajorE  S S S   S S   S A chord diagramE MajorE  A chord diagramE MajorE     S S S   S A chord diagramE MajorE  S S S   S S   S A chord diagramE MajorE  A chord diagramE MajorE
A chord diagramE MajorE||-------------------------------------|-------------------------------------|
A chord diagramBB||-------------------------------------|-------------------------------------|
A chord diagramG+G||-------------------------------------|-------------------------------------|
A chord diagramD MajorD||------------5------------------5--5--|------------5------------------5--5--|
A chord diagramA augmentedA||------------3------------------3--3--|------------3------------------3--3--|
A chord diagramD MajorD||--0-0-3br-0----0-0-3br-0-3br-0-------|--0-0-3br-0----0-0-3br-0-3br-0-------|


                                                     \1       \1
  S S S   S A chord diagramE MajorE  S S S   S S   S A chord diagramE MajorE  A chord diagramE MajorE     S S S   S A chord diagramE MajorE  H        A chord diagramE MajorE
-------------------------------------|---------------------------|
-------------------------------------|---------------------------|
-------------------------------------|---------------------------|
------------5------------------5--5--|------------5--------------|
------------3------------------3--3--|------------3--------------|
--0-0-3br-0----0-0-3br-0-3br-0-------|--0-0-3br-0----0--------L--|


  S S S   S A chord diagramE MajorE  S S S   S S   S A chord diagramE MajorE  A chord diagramE MajorE     S S S   S A chord diagramE MajorE  S S S   S S   S A chord diagramE MajorE  A chord diagramE MajorE
-------------------------------------|-------------------------------------|
-------------------------------------|-------------------------------------|
-------------------------------------|-------------------------------------|
------------5------------------5--5--|------------5------------------5--5--|
------------3------------------3--3--|------------3------------------3--3--|
--0-0-3br-0----0-0-3br-0-3br-0-------|--0-0-3br-0----0-0-3br-0-3br-0-------|


  S S S   S A chord diagramE MajorE  S S S   S S   S A chord diagramE MajorE  A chord diagramE MajorE     S S S   S A chord diagramE MajorE  S S S   S A chord diagramE MajorE   A chord diagramE MajorE   A chord diagramE MajorE
-------------------------------------|-------------------------------------|
-------------------------------------|-------------------------------------|
-------------------------------------|-------------------------------------|
------------5------------------5--5--|------------5------------------------|
------------3------------------3--3--|------------3------------3~--2~--1~--|
--0-0-3br-0----0-0-3br-0-3br-0-------|--0-0-3br-0----0-0-3br-0-3~--2~--1~--|


  S S S   S A chord diagramE MajorE  S S S   S S   S A chord diagramE MajorE  A chord diagramE MajorE     S S S   S A chord diagramE MajorE  S S S   S S   S A chord diagramE MajorE  A chord diagramE MajorE
-------------------------------------|-------------------------------------|
-------------------------------------|-------------------------------------|
-------------------------------------|-------------------------------------|
------------5------------------5--5--|------------5------------------5--5--|
------------3------------------3--3--|------------3------------------3--3--|
--0-0-3br-0----0-0-3br-0-3br-0-------|--0-0-3br-0----0-0-3br-0-3br-0-------|


  S S S   S A chord diagramE MajorE  S S S   S S   S A chord diagramE MajorE  A chord diagramE MajorE
-------------------------------------|
-------------------------------------|
-------------------------------------|
------------5------------------5--5--|
------------3------------------3--3--|
--0-0-3br-0----0-0-3br-0-3br-0-------|


                         PM PM PM PM PM PM
  S S S   S A chord diagramE MajorE  S S S   S S  S  S  S  S  S     H        S S S S S S S S
-------------------------------------------|---------------------------|
-------------------------------------------|---------------------------|
-------------------------------------------|--2------------------------|
------------5------------------------------|--0------------------------|
------------3------------3--3--2--2--1--1--|--0----------0-1-2-3-0-1-2-|
--0-0-3br-0----0-0-3br-0-3--3--2--2--1--1--|--0----------0-1-2-3-0-1-2-|


  H        S S S S S S S S    H        S S S S S S S S    H        H
---------------------------|---------------------------|--------------------|
---------------------------|---------------------------|--------------------|
---------------------------|---------------------------|--------------------|
--3------------------------|--3------------------------|--3--------5--------|
--3----------0-1-2-3-0-1-2-|--3----------0-1-2-3-0-1-2-|--3--------5--------|
--3----------0-1-2-3-0-1-2-|--3----------0-1-2-3-0-1-2-|--3--------5--------|


  H        S S S S S S S S    H        S S S S S S S S
---------------------------|---------------------------|
---------------------------|---------------------------|
--2------------------------|---------------------------|
--0------------------------|--3------------------------|
--0----------0-1-2-3-0-1-2-|--3----------0-1-2-3-0-1-2-|
--0----------0-1-2-3-0-1-2-|--3----------0-1-2-3-0-1-2-|


  H        S S S S S S S S    H        H
---------------------------|--------------------|
---------------------------|--------------------|
---------------------------|--------------------|
--3------------------------|--3--------5--------|
--3----------0-1-2-3-0-1-2-|--3--------5--------|
--3----------0-1-2-3-0-1-2-|--3--------5--------|


  S S S   S A chord diagramE MajorE  S S S   S S   S A chord diagramE MajorE  A chord diagramE MajorE     S S S   S A chord diagramE MajorE  S S S   S S   S A chord diagramE MajorE  A chord diagramE MajorE
-------------------------------------|-------------------------------------|
-------------------------------------|-------------------------------------|
-------------------------------------|-------------------------------------|
------------5------------------5--5--|------------5------------------5--5--|
------------3------------------3--3--|------------3------------------3--3--|
--0-0-3br-0----0-0-3br-0-3br-0-------|--0-0-3br-0----0-0-3br-0-3br-0-------|


  S S S   S A chord diagramE MajorE  S S S   S S   S A chord diagramE MajorE  A chord diagramE MajorE     S S S   S A chord diagramE MajorE  S S S   S A chord diagramE MajorE   A chord diagramE MajorE   A chord diagramE MajorE
-------------------------------------|-------------------------------------|
-------------------------------------|-------------------------------------|
-------------------------------------|-------------------------------------|
------------5------------------5--5--|------------5------------------------|
------------3------------------3--3--|------------3------------3~--2~--1~--|
--0-0-3br-0----0-0-3br-0-3br-0-------|--0-0-3br-0----0-0-3br-0-3~--2~--1~--|


  S S S   S A chord diagramE MajorE  S S S   S S   S A chord diagramE MajorE  A chord diagramE MajorE     S S S   S A chord diagramE MajorE  S S S   S S   S A chord diagramE MajorE  A chord diagramE MajorE
-------------------------------------|-------------------------------------|
-------------------------------------|-------------------------------------|
-------------------------------------|-------------------------------------|
------------5------------------5--5--|------------5------------------5--5--|
------------3------------------3--3--|------------3------------------3--3--|
--0-0-3br-0----0-0-3br-0-3br-0-------|--0-0-3br-0----0-0-3br-0-3br-0-------|


  S S S   S A chord diagramE MajorE  S S S   S S   S A chord diagramE MajorE  A chord diagramE MajorE
-------------------------------------|
-------------------------------------|
-------------------------------------|
------------5------------------5--5--|
------------3------------------3--3--|
--0-0-3br-0----0-0-3br-0-3br-0-------|


                         PM PM PM PM PM PM
  S S S   S A chord diagramE MajorE  S S S   S S  S  S  S  S  S     H        S S S S S S S S
-------------------------------------------|---------------------------|
-------------------------------------------|---------------------------|
-------------------------------------------|--2------------------------|
------------5------------------------------|--0------------------------|
------------3------------3--3--2--2--1--1--|--0----------0-1-2-3-0-1-2-|
--0-0-3br-0----0-0-3br-0-3--3--2--2--1--1--|--0----------0-1-2-3-0-1-2-|


  H        S S S S S S S S    H        S S S S S S S S    H        H
---------------------------|---------------------------|--------------------|
---------------------------|---------------------------|--------------------|
---------------------------|---------------------------|--------------------|
--3------------------------|--3------------------------|--3--------5--------|
--3----------0-1-2-3-0-1-2-|--3----------0-1-2-3-0-1-2-|--3--------5--------|
--3----------0-1-2-3-0-1-2-|--3----------0-1-2-3-0-1-2-|--3--------5--------|


  H        S S S S S S S S    H        S S S S S S S S
---------------------------|---------------------------|
---------------------------|---------------------------|
--2------------------------|---------------------------|
--0------------------------|--3------------------------|
--0----------0-1-2-3-0-1-2-|--3----------0-1-2-3-0-1-2-|
--0----------0-1-2-3-0-1-2-|--3----------0-1-2-3-0-1-2-|


  H        S S S S S S S S    H        H
---------------------------|--------------------|
---------------------------|--------------------|
---------------------------|--------------------|
--3------------------------|--3--------5--------|
--3----------0-1-2-3-0-1-2-|--3--------5--------|
--3----------0-1-2-3-0-1-2-|--3--------5--------|


  S S S   S A chord diagramE MajorE  S S S   S S   S A chord diagramE MajorE  A chord diagramE MajorE     S S S   S A chord diagramE MajorE  S S S   S S   S A chord diagramE MajorE  A chord diagramE MajorE
-------------------------------------|-------------------------------------|
-------------------------------------|-------------------------------------|
-------------------------------------|-------------------------------------|
------------5------------------5--5--|------------5------------------5--5--|
------------3------------------3--3--|------------3------------------3--3--|
--0-0-3br-0----0-0-3br-0-3br-0-------|--0-0-3br-0----0-0-3br-0-3br-0-------|


  S S S   S A chord diagramE MajorE  S S S   S S   S A chord diagramE MajorE  A chord diagramE MajorE     S S S   S A chord diagramE MajorE  S S S   S A chord diagramE MajorE   A chord diagramE MajorE   A chord diagramE MajorE
-------------------------------------|-------------------------------------|
-------------------------------------|-------------------------------------|
-------------------------------------|-------------------------------------|
------------5------------------5--5--|------------5------------------------|
------------3------------------3--3--|------------3------------3~--2~--1~--|
--0-0-3br-0----0-0-3br-0-3br-0-------|--0-0-3br-0----0-0-3br-0-3~--2~--1~--|


  S S S   S A chord diagramE MajorE  S S S   S S   S A chord diagramE MajorE  A chord diagramE MajorE     S S S   S A chord diagramE MajorE  S S S   S S   S A chord diagramE MajorE  A chord diagramE MajorE
-------------------------------------|-------------------------------------|
-------------------------------------|-------------------------------------|
-------------------------------------|-------------------------------------|
------------5------------------5--5--|------------5------------------5--5--|
------------3------------------3--3--|------------3------------------3--3--|
--0-0-3br-0----0-0-3br-0-3br-0-------|--0-0-3br-0----0-0-3br-0-3br-0-------|


  S S S   S A chord diagramE MajorE  S S S   S S   S A chord diagramE MajorE  A chord diagramE MajorE
-------------------------------------|
-------------------------------------|
-------------------------------------|
------------5------------------5--5--|
------------3------------------3--3--|
--0-0-3br-0----0-0-3br-0-3br-0-------|


                         PM PM PM PM PM PM
  S S S   S A chord diagramE MajorE  S S S   S S  S  S  S  S  S
-------------------------------------------|
-------------------------------------------|
-------------------------------------------|
------------5------------------------------|
------------3------------3--3--2--2--1--1--|
--0-0-3br-0----0-0-3br-0-3--3--2--2--1--1--|


  PM PM PM PM PM PM PM PM PM PM
  S  S  S  S  S  S  S  S  S  S  A chord diagramE MajorE  Q
----------------------------------------|
----------------------------------------|
----------------------------------------|
----------------------------------------|
--0--1--2--3--2--1--0--1--2--3--2--1----|
--0--1--2--3--2--1--0--1--2--3--2--1----|


  PM PM PM PM PM PM PM PM PM PM
  S  S  S  S  S  S  S  S  S  S  A chord diagramE MajorE  Q
----------------------------------------|
----------------------------------------|
----------------------------------------|
----------------------------------------|
--0--1--2--3--2--1--0--1--2--3--2--1----|
--0--1--2--3--2--1--0--1--2--3--2--1----|


  PM PM PM PM PM PM PM PM PM PM
  S  S  S  S  S  S  S  S  S  S  A chord diagramE MajorE  Q
----------------------------------------|
----------------------------------------|
----------------------------------------|
----------------------------------------|
--0--1--2--3--2--1--0--1--2--3--2--1----|
--0--1--2--3--2--1--0--1--2--3--2--1----|


  PM PM PM PM PM PM PM PM PM PM
  S  S  S  S  S  S  S  S  S  S  A chord diagramE MajorE  Q       W
----------------------------------------|-------------------|
----------------------------------------|-------------------|
----------------------------------------|-------------------|
----------------------------------------|-------------------|
--0--1--2--3--2--1--0--1--2--3--2--1----|--0----------------|
--0--1--2--3--2--1--0--1--2--3--2--1----|--0----------------|


  W                   W                   W                   W
-------------------|-------------------|-------------------|-------------------|
-------------------|-------------------|-------------------|-------------------|
-------------------|-------------------|-------------------|-------------------|
-------------------|-------------------|-------------------|-------------------|
--L----------------|--L----------------|--0----------------|--0----------------|
--L----------------|--L----------------|--0----------------|--0----------------|


  W                   W                   W
-------------------|-------------------|-------------------|----|----|----|----|
-------------------|-------------------|-------------------|----|----|----|----|
-------------------|-------------------|-------------------|----|----|----|----|
-------------------|-------------------|-------------------|----|----|----|----|
--0----------------|--0----------------|--0----------------|----|----|----|----|
--0----------------|--0----------------|--0----------------|----|----|----|----|


                                          W                   W
----|----|----|----|----|----|----|----|-------------------|-------------------|
----|----|----|----|----|----|----|----|-------------------|-------------------|
----|----|----|----|----|----|----|----|-------------------|-------------------|
----|----|----|----|----|----|----|----|-------------------|-------------------|
----|----|----|----|----|----|----|----|--0----------------|--L----------------|
----|----|----|----|----|----|----|----|--0----------------|--L----------------|


This part is carried by the other guitar. It is the interlude and solo

-------------------|-------------------|-------------------|-------------------|
-------------------|-------------------|-------------------|-------------------|
-------------------|-------------------|-------------------|-------------------|
-------------------|-------------------|-------------------|-------------------|
-------------------|-------------------|-------------------|-------------------|
-------------------|-------------------|-------------------|-------------------|


-------------------|-------------------|-------------------|-------------------|
-------------------|-------------------|-------------------|-------------------|
-------------------|-------------------|-------------------|-------------------|
-------------------|-------------------|-------------------|-------------------|
-------------------|-------------------|-------------------|-------------------|
-------------------|-------------------|-------------------|-------------------|


-------------------|-------------------|-------------------|-------------------|
-------------------|-------------------|-------------------|-------------------|
-------------------|-------------------|-------------------|-------------------|
-------------------|-------------------|-------------------|-------------------|
-------------------|-------------------|-------------------|-------------------|
-------------------|-------------------|-------------------|-------------------|


Rhythm under the solo:
                                          PM PM PM PM PM PM PM PM
                                          A chord diagramE MajorE  A chord diagramE MajorE  A chord diagramE MajorE  A chord diagramE MajorE  A chord diagramE MajorE  A chord diagramE MajorE  A chord diagramE MajorE  A chord diagramE MajorE
-------------------|-------------------|--------------------------|
-------------------|-------------------|--------------------------|
-------------------|-------------------|--------------------------|
-------------------|-------------------|--------------------------|
-------------------|-------------------|--------------------------|
-------------------|-------------------|--0--0--0--0--0--0--0--0--|


  PM PM PM PM PM PM PM PM
  A chord diagramE MajorE  A chord diagramE MajorE  A chord diagramE MajorE  A chord diagramE MajorE  A chord diagramE MajorE  A chord diagramE MajorE  A chord diagramE MajorE  A chord diagramE MajorE     S S S   S A chord diagramE MajorE  S S S   S S   S A chord diagramE MajorE  A chord diagramE MajorE
--------------------------|-------------------------------------|
--------------------------|-------------------------------------|
--------------------------|-------------------------------------|
--------------------------|------------5------------------5--5--|
--------------------------|------------3------------------3--3--|
--0--0--0--0--0--0--0--0--|--0-0-3br-0----0-0-3br-0-3br-0-------|


  S S S   S A chord diagramE MajorE  S S S   S S   S A chord diagramE MajorE  A chord diagramE MajorE     S S S   S A chord diagramE MajorE  S S S   S S   S A chord diagramE MajorE  A chord diagramE MajorE
-------------------------------------|-------------------------------------|
-------------------------------------|-------------------------------------|
-------------------------------------|-------------------------------------|
------------5------------------5--5--|------------5------------------5--5--|
------------3------------------3--3--|------------3------------------3--3--|
--0-0-3br-0----0-0-3br-0-3br-0-------|--0-0-3br-0----0-0-3br-0-3br-0-------|


  S S S   S A chord diagramE MajorE  S S S   S A chord diagramE MajorE   A chord diagramE MajorE   A chord diagramE MajorE      S S S   S A chord diagramE MajorE  S S S   S S   S A chord diagramE MajorE  A chord diagramE MajorE
-------------------------------------|-------------------------------------|
-------------------------------------|-------------------------------------|
-------------------------------------|-------------------------------------|
------------5------------------------|------------5------------------5--5--|
------------3------------3~--2~--1~--|------------3------------------3--3--|
--0-0-3br-0----0-0-3br-0-3~--2~--1~--|--0-0-3br-0----0-0-3br-0-3br-0-------|

  S S S   S A chord diagramE MajorE  S S S   S S   S A chord diagramE MajorE  A chord diagramE MajorE     S S S   S A chord diagramE MajorE  S S S   S S   S A chord diagramE MajorE  A chord diagramE MajorE
-------------------------------------|-------------------------------------|
-------------------------------------|-------------------------------------|
-------------------------------------|-------------------------------------|
------------5------------------5--5--|------------5------------------5--5--|
------------3------------------3--3--|------------3------------------3--3--|
--0-0-3br-0----0-0-3br-0-3br-0-------|--0-0-3br-0----0-0-3br-0-3br-0-------|


                         PM PM PM PM PM PM
  S S S   S A chord diagramE MajorE  S S S   S S  S  S  S  S  S     H        S S S S S S S S
-------------------------------------------|---------------------------|
-------------------------------------------|---------------------------|
-------------------------------------------|--2------------------------|
------------5------------------------------|--0------------------------|
------------3------------3--3--2--2--1--1--|--0----------0-1-2-3-0-1-2-|
--0-0-3br-0----0-0-3br-0-3--3--2--2--1--1--|--0----------0-1-2-3-0-1-2-|


  H        S S S S S S S S    H        S S S S S S S S    H        H
---------------------------|---------------------------|--------------------|
---------------------------|---------------------------|--------------------|
---------------------------|---------------------------|--------------------|
--3------------------------|--3------------------------|--3--------5--------|
--3----------0-1-2-3-0-1-2-|--3----------0-1-2-3-0-1-2-|--3--------5--------|
--3----------0-1-2-3-0-1-2-|--3----------0-1-2-3-0-1-2-|--3--------5--------|


  H        S S S S S S S S    H        S S S S S S S S
---------------------------|---------------------------|
---------------------------|---------------------------|
--2------------------------|---------------------------|
--0------------------------|--3------------------------|
--0----------0-1-2-3-0-1-2-|--3----------0-1-2-3-0-1-2-|
--0----------0-1-2-3-0-1-2-|--3----------0-1-2-3-0-1-2-|


  H        S S S S S S S S    H        H
---------------------------|--------------------|
---------------------------|--------------------|
---------------------------|--------------------|
--3------------------------|--3--------5--------|
--3----------0-1-2-3-0-1-2-|--3--------5--------|
--3----------0-1-2-3-0-1-2-|--3--------5--------|


  S S S   S A chord diagramE MajorE  S S S   S S   S A chord diagramE MajorE  A chord diagramE MajorE     S S S   S A chord diagramE MajorE  S S S   S S   S A chord diagramE MajorE  A chord diagramE MajorE
-------------------------------------|-------------------------------------|
-------------------------------------|-------------------------------------|
-------------------------------------|-------------------------------------|
------------5------------------5--5--|------------5------------------5--5--|
------------3------------------3--3--|------------3------------------3--3--|
--0-0-3br-0----0-0-3br-0-3br-0-------|--0-0-3br-0----0-0-3br-0-3br-0-------|


  S S S   S A chord diagramE MajorE  S S S   S S   S A chord diagramE MajorE  A chord diagramE MajorE     S S S   S A chord diagramE MajorE  S S S   S A chord diagramE MajorE   A chord diagramE MajorE   A chord diagramE MajorE
-------------------------------------|-------------------------------------|
-------------------------------------|-------------------------------------|
-------------------------------------|-------------------------------------|
------------5------------------5--5--|------------5------------------------|
------------3------------------3--3--|------------3------------3~--2~--1~--|
--0-0-3br-0----0-0-3br-0-3br-0-------|--0-0-3br-0----0-0-3br-0-3~--2~--1~--|


  S S S   S A chord diagramE MajorE  S S S   S S   S A chord diagramE MajorE  A chord diagramE MajorE     S S S   S A chord diagramE MajorE  S S S   S S   S A chord diagramE MajorE  A chord diagramE MajorE
-------------------------------------|-------------------------------------|
-------------------------------------|-------------------------------------|
-------------------------------------|-------------------------------------|
------------5------------------5--5--|------------5------------------5--5--|
------------3------------------3--3--|------------3------------------3--3--|
--0-0-3br-0----0-0-3br-0-3br-0-------|--0-0-3br-0----0-0-3br-0-3br-0-------|


                                                               PM PM PM
  S S S   S A chord diagramE MajorE  S S S   S S   S A chord diagramE MajorE  A chord diagramE MajorE     S S S   S A chord diagramE MajorE  S S S   S A chord diagramE MajorE  A chord diagramE MajorE  A chord diagramE MajorE
-------------------------------------|----------------------------------|
-------------------------------------|----------------------------------|
-------------------------------------|----------------------------------|
------------5------------------5--5--|------------5---------------------|
------------3------------------3--3--|------------3------------3--2--1--|
--0-0-3br-0----0-0-3br-0-3br-0-------|--0-0-3br-0----0-0-3br-0-3--2--1--|


  S S S   S A chord diagramE MajorE  S S S   S S   S A chord diagramE MajorE  A chord diagramE MajorE     S S S   S A chord diagramE MajorE  S S S   S S   S A chord diagramE MajorE  A chord diagramE MajorE
-------------------------------------|-------------------------------------|
-------------------------------------|-------------------------------------|
-------------------------------------|-------------------------------------|
------------5------------------5--5--|------------5------------------5--5--|
------------3------------------3--3--|------------3------------------3--3--|
--0-0-3br-0----0-0-3br-0-3br-0-------|--0-0-3br-0----0-0-3br-0-3br-0-------|


  S S S   S A chord diagramE MajorE  S S S   S S   S A chord diagramE MajorE  A chord diagramE MajorE     S S S   S A chord diagramE MajorE  S S S   S A chord diagramE MajorE   A chord diagramE MajorE   A chord diagramE MajorE
-------------------------------------|-------------------------------------|
-------------------------------------|-------------------------------------|
-------------------------------------|-------------------------------------|
------------5------------------5--5--|------------5------------------------|
------------3------------------3--3--|------------3------------3~--2~--1~--|
--0-0-3br-0----0-0-3br-0-3br-0-------|--0-0-3br-0----0-0-3br-0-3~--2~--1~--|


  S S S   S A chord diagramE MajorE  S S S   S S   S A chord diagramE MajorE  A chord diagramE MajorE     S S S   S A chord diagramE MajorE  S S S   S S   S A chord diagramE MajorE  A chord diagramE MajorE
-------------------------------------|-------------------------------------|
-------------------------------------|-------------------------------------|
-------------------------------------|-------------------------------------|
------------5------------------5--5--|------------5------------------5--5--|
------------3------------------3--3--|------------3------------------3--3--|
--0-0-3br-0----0-0-3br-0-3br-0-------|--0-0-3br-0----0-0-3br-0-3br-0-------|


  S S S   S A chord diagramE MajorE  S S S   S S   S A chord diagramE MajorE  A chord diagramE MajorE     S S S   S A chord diagramE MajorE  S S A chord diagramE MajorE  Q.
-------------------------------------|-----------------------------||
-------------------------------------|-----------------------------||
-------------------------------------|-----------------------------||
------------5------------------5--5--|------------5----------------||
------------3------------------3--3--|------------3----------------||
--0-0-3br-0----0-0-3br-0-3br-0-------|--0-0-3br-0----0-0-0---------||




This is hte interlude part that has the feeling of half time. It leads right
into the solo below:


                  H.           A chord diagramE MajorE  A chord diagramE MajorE     H.           A chord diagramE MajorE  A chord diagramE MajorE
-------|-------|---------------------|---------------------|
-------|-------|---------------------|---------------------|
-------|-------|------------------2--|--L---------------0--|
-------|-------|---------------0-----|---------------0-----|
-------|-------|---------------------|---------------------|
-------|-------|---------------------|---------------------|


                                                              PM PM
  H.           A chord diagramE MajorE  A chord diagramE MajorE     H.           A chord diagramE MajorE  A chord diagramE MajorE     H.           A chord diagramE MajorE  S  S
---------------------|---------------------|------------------------|
---------------------|---------------------|------------------------|
--L---------------4--|--L---------------2--|--L---------------------|
---------------0-----|---------------0-----|------------------------|
---------------------|---------------------|------------------3--3--|
---------------------|---------------------|------------------------|


  PM              PM PM    PM              PM PM
  A chord diagramE MajorE  H.           S  S     A chord diagramE MajorE  H.           S  S     A chord diagramE MajorE  H.           A chord diagramE MajorE
------------------------|------------------------|---------------------|
------------------------|------------------------|---------------------|
------------------------|------------------------|---------------------|
-----5------------------|------------------------|---------------------|
--3---------------------|-----5------------------|---------------------|
------------------0--0--|--5---------------0--0--|--0--0------------L--|


                                        PM    PM              PM
  H.           A chord diagramE MajorE  A chord diagramE MajorE     A chord diagramE MajorE  H.           A chord diagramE MajorE     A chord diagramE MajorE  H.           A chord diagramE MajorE
---------------------|---------------------|---------------------|
---------------------|---------------------|---------------------|
---------------------|-----2------------2--|-----0------------0--|
------------------0--|--0------------------|--0------------------|
---------------------|---------------------|---------------------|
--L------------------|---------------------|---------------------|


  A chord diagramE MajorE  H.           A chord diagramE MajorE     A chord diagramE MajorE  H        Q     S S    A chord diagramE MajorE  H.           A chord diagramE MajorE
---------------------|------------------------|---------------------|
---------------------|------------------------|---------------------|
-----4------------L--|-----2--------2\--------|---------------------|
--0------------------|--0---------------------|-----5------------L--|
---------------------|--------------------3-3-|--3------------------|
---------------------|------------------------|---------------------|


                  PM PM
  A chord diagramE MajorE  H.           S  S     A chord diagramE MajorE  H.           A chord diagramE MajorE     H.            A chord diagramE MajorE  A chord diagramE MajorE
------------------------|---------------------|----------------------|
------------------------|---------------------|----------------------|
------------------------|---------------------|-------------------2--|
------------------------|---------------------|----------------------|
-----5------------------|---------------------|---------------/5-----|
--5---------------0--0--|--0--0------------L--|--0-------------------|


  H.           A chord diagramE MajorE  A chord diagramE MajorE     H.           A chord diagramE MajorE  A chord diagramE MajorE     H.           A chord diagramE MajorE  A chord diagramE MajorE
---------------------|---------------------|---------------------|
---------------------|---------------------|---------------------|
--L---------------0--|--L---------------4--|--L---------------2--|
---------------0-----|---------------0-----|---------------0-----|
---------------------|---------------------|---------------------|
---------------------|---------------------|---------------------|


                  PM PM    PM              PM PM    PM              PM PM
  H.           A chord diagramE MajorE  S  S     A chord diagramE MajorE  H.           S  S     A chord diagramE MajorE  H.           S  S
------------------------|------------------------|------------------------|
------------------------|------------------------|------------------------|
--L---------------------|------------------------|------------------------|
------------------------|-----5------------------|------------------------|
------------------3--3--|--3---------------------|-----5------------------|
------------------------|------------------0--0--|--5---------------0--0--|


  A chord diagramE MajorE  H.           A chord diagramE MajorE     W                   H        H
---------------------|-------------------|--------------------|
---------------------|-------------------|--------------------|
---------------------|-------------------|--------------------|
---------------------|-------------------|--------------------|
---------------------|-------------------|--------------------|
--0--0------------L--|--L----------------|--L-----------------|


  H.            A chord diagramE MajorE  A chord diagramE MajorE     H.           A chord diagramE MajorE  A chord diagramE MajorE     H.           A chord diagramE MajorE  A chord diagramE MajorE
----------------------|---------------------|---------------------|
----------------------|---------------------|---------------------|
-------------------2--|--L---------------0--|--L---------------4--|
----------------------|---------------0-----|---------------0-----|
---------------/5-----|---------------------|---------------------|
--0-------------------|---------------------|---------------------|


                                        PM PM    PM              PM PM
  H.           A chord diagramE MajorE  A chord diagramE MajorE     H.           A chord diagramE MajorE  S  S     A chord diagramE MajorE  H.           S  S
---------------------|------------------------|------------------------|
---------------------|------------------------|------------------------|
--L---------------2--|--L---------------------|------------------------|
---------------0-----|------------------------|-----5------------------|
---------------------|------------------3--3--|--3---------------------|
---------------------|------------------------|------------------0--0--|


  PM                    PM PM PM PM PM PM PM PM    PM PM PM PM PM PM PM
  A chord diagramE MajorE  H.           A chord diagramE MajorE     A chord diagramE MajorE  A chord diagramE MajorE  A chord diagramE MajorE  A chord diagramE MajorE  A chord diagramE MajorE  A chord diagramE MajorE  A chord diagramE MajorE  A chord diagramE MajorE     A chord diagramE MajorE  A chord diagramE MajorE  A chord diagramE MajorE  A chord diagramE MajorE  A chord diagramE MajorE  A chord diagramE MajorE  A chord diagramE MajorE   A chord diagramE MajorE
---------------------|--------------------------|----------------------------|
---------------------|--------------------------|----------------------------|
---------------------|--------------------------|-----------------------12b--|
---------------------|--------------------------|----------------------------|
-----5---------------|--------------------------|----------------------------|
--5------------------|--0--0--0--0--0--0--0--0--|--0--0--0--0--0--0--0-------|


   S  S   S  S  S  S   S  S   S  S  S  S   S  S   S  S
------------10-10---------------10-10---------------10-|
--10-----10-10-10-----10-----10-10-10-----10-----10-10-|
-----12b----------12b----12b----------12b----12b-------|
-------------------------------------------------------|
-------------------------------------------------------|
-------------------------------------------------------|


   S   S  S  S  S   S  S  S  S   S  S  S  S   S  S  S
--10--------------------------------------------------|
--10--10-13-10-----10-13-10-----10-13-10-----10-13-10-|
--12b----------12b----------12b----------12b----------|
------------------------------------------------------|
------------------------------------------------------|
------------------------------------------------------|


   |---6--|   |---6--|  |------7------|   7  7
   S   S  S   S  S   S  S   S  S   S  S   S  S   T  T   T  T   T  T  T  T  S  S
---------------------------------------------------------------------------------|
------10-13p-10-----10-13p-10-----10-13p-10-----10-13p-10-----10-----------------|
--12b-----------12b-----------12b-----------12b-----------12b----13-12-10----12--|b
--------------------------------------------------------------------------12-----|
---------------------------------------------------------------------------------|
---------------------------------------------------------------------------------|


   A chord diagramE MajorE     S  S  S     S  Q      A chord diagramE MajorE    Q
-----------------------------------15b----|
-----------------------15~-----L\---------|
--12br--10----10-12g14--------------------|
-----------12-----------------------------|
------------------------------------------|
------------------------------------------|


   S     S  A chord diagramE MajorE   A chord diagramE MajorE    S     S  A chord diagramE MajorE   A chord diagramE MajorE    S     S  A chord diagramE MajorE
--15pbr-13-----15b--15pbr-13-----15b--15pbr-13-----|
-----------15----------------15----------------15--|
---------------------------------------------------|
---------------------------------------------------|
---------------------------------------------------|
---------------------------------------------------|


                  |--3--|
   A chord diagramE MajorE    A chord diagramE MajorE    A chord diagramE MajorE    S  S  S  Q.         A chord diagramE MajorE
--15b--15b--15b--13----13-----------------|
--------------------15----15brb-------L\--|
------------------------------------------|
------------------------------------------|
------------------------------------------|
------------------------------------------|


   |---3--|  |---3--|  |---3--|  |--3--|  |---3--|  |---3--|  |---3--|  |--3--|
   S   S  S  S  S   S  S   S  S  S  S  S  S   S  S  S  S   S  S   S  S  S  S  S
--17p-13----13---------------------------17p-13----13---------------------------|
---------17----17p-13-18p-13-13-15-13-----------17----17p-13-18p-13-13-15-13----|
--------------------------------------14-------------------------------------14-|
--------------------------------------------------------------------------------|
--------------------------------------------------------------------------------|
--------------------------------------------------------------------------------|


   |---3--|  |---3--|  |---3--|  |--3--|  |--3--|
   S   S  S  S  S   S  S   S  S  S  S  S  S  S  S  S  S  A chord diagramE MajorE      A chord diagramE MajorE
--17p-13----13-----------------------------------------------------|
---------17----17p-13-18p-13----15---------------------------------|
-----------------------------14----17-14-13-14-13-12----12brb--10--|
-----------------------------------------------------14------------|
-------------------------------------------------------------------|
-------------------------------------------------------------------|


   H.            Q
----------------------|-----|-------------------|-------------------|
----------------------|-----|-------------------|-------------------|
----------------------|-----|-------------------|-------------------|
--12b-----------------|-----|-------------------|-------------------|
----------------------|-----|-------------------|-------------------|
----------------------|-----|-------------------|-------------------|








Duration 🏷Legend
---------------
W - whole
H - half
Q - quarter
A chord diagramE MajorE - 8th
S - 16th
T - 32nd
X - 64th
. - note dotted
|-n-|  - n-tuplets


Tablature 🏷Legend
----------------
L - tied note
x - dead note
g - grace note
(n) - ghost note
> - accentuded note
NH - natural harmonic
AH - artificial harmonic
TH - tapped harmonic
SH - semi harmonic
PH - pitch harmonic
h - hammer on
p - pull off
b - bend
br - bendRelease
pb - preBend
pbr - preBendRelease
brb - bendReleaseBend
\n/ - tremolo bar dip
\n - tremolo bar dive
-/n - tremolo bar Release up
/n\ - tremolo bar inverted dip
/n - tremolo bar return
-\n - tremolo bar Release down
S - shift slide
s - legato slide
/ -  slide into from below or out of upwards
\ -  slide into from above or out of downwards
~ - vibrato
W - wide vibrato
tr - trill
TP - tremolo picking
T - tapping
S - slap
P - pop
< - fade in
^ - brush up
v - brush down
ⓘ Guitar tab for 'Freedom' by Saigon Kick, formed in 1988 from Miami, FL

Almost there ...

Sign in to get your own page with links to favourite songs and more. You are just one click away...

Login with Facebook Login with Google