Log in

One click and you are in

Login with Facebook Login with Google

Why sign up and log in

Guitar Tabs Explorer
Saigon Kick tabs for Chanel

Guitar tabs with lyrics

CHANEL--SAIGON KICK

>from 1992's "The Lizard" album

Third Stone Atlantic  A2 92158

Music and Lyrics by Jason Bieler


Transcribed by Eric Schlelein

email eric@u.arizona.edu


This is kind of a lounge-act song with a fairly slow tempo

(about 150 beats per minute).  I play all the chords as bar chords

so I can mute the strings and get the rhythmic stacatto sound.


 Just so ya know, this is a CM7/C chord (and I'm fairly certain

 it's called CM7/C):


        e--3--|

        B--5--|

        G--4--|

        D--5--|

        A--3--|

        E-----|



     AM                      dm7

        If you see me in the ...

     GM                     CM7/C

        No I'm never coming ...

            FM        EM       AM

        For you, my ...


     AM                    dm7

        Walk along my dear ...

     GM                     A chord diagramC majorC

        No not a tear ....

            FM        EM       AM

        For you, my ....


                D-------------5---|

                A----0--2--3------|


        FM

        Dancin on the moonlit ....

        CM

        Oh, my heart does ....

          DM

        Believe me when I ...

            GM

        You really ....




Walking in the park the ....


Solo: (rhythm guitar plays verse part)


      --> By the by, if you happen to notice, this transcript-

        ion is far from perfect. I did the best I could, but

        sadly, I can't compete with Jason Bieler.  The solo is

	  based on an A chord diagramA augmentedA blues scale if that helps any.


e-8-7-5-7-5---5-----------------------------------------------|

B-------------------------------------------------------------|

G-----------8---7-5-7/9-5-7-----5-7----5-7---7/9-5------------|

D----------------------------/7-----/7-----7------------------|

A-------------------------------------------------------------|

E-------------------------------------------------------------|


e-------------------------------------------------------------|

B-------------------------------------------------------------|

G-7-5---5------------------------------------5--------5/------|

D-----7---7-5-7-5------5-----------------------7--5-7----7----|

A----------------7-5-6---7-6-5--------------------------------|

E------------------------------8-5-8-5-3-5-8------------------|


(triplet feel)

e-----------------------------------------|

B-12/13-13--13-13-13--13-13-13--13-13-13--|

G-----------------------------------------|

D--9/10-10--10-10-10--10-10-10--10-10-10--|

A-----------------------------------------|

E-----------------------------------------|


e-----------------------------------------|

B-12/13-13--13-13-13--13-13-13--13-13-13--|

G-----------------------------------------|

D--9/10-10--10-10-10--10-10-10--10-10-10--|

A-----------------------------------------|

E-----------------------------------------|


e-----------------------------------------|

B-12/13-13--13/15-15--15/17-17--15-15-15--|

G-----------------------------------------|

D--9/10-10--10/12-12--12/14-14--12-12-12--|

A-----------------------------------------|

E-----------------------------------------|


e-----------------------------------------|

B-13-13-13--12-12-12--13------------------|

G-----------------------------------------|

D-10-10-10---9--9--9--10------------------|

A-----------------------------------------|

E-----------------------------------------|


e-------------------------------------------------------------|

B-----------------------------------------------------10------|

G--9-8-7------9-8-7------9-8-7------9-8-7--------7/9----------|

D--------10-7-------10-7-------10-7-------10-7-7--------------|

A-------------------------------------------------------------|

E-------------------------------------------------------------|


e-------------------------------------------------------------|

B-------------------------------------------------------------|

G--5/---------------------------------------------------------|

D------7-5----------------------------------------------------|

A-----------7-6-5-----5---------------------------------------|

E------------------8-----8------------------------------------|


Dancin on the moonlit sky, ....
ⓘ Guitar tab for 'Chanel' by Saigon Kick, formed in 1988 from Miami, FL

Almost there ...

Sign in to get your own page with links to favourite songs and more. You are just one click away...

Login with Facebook Login with Google