Search tabs and chords

Browse bands and artists

A B C D E F G H I J K L M N O P Q R S T U V W X Y Z #

Log in

[ Register here | Forgot password ]

Guitar Tabs Explorer
Print

Battle Ignition tab by Shiro Sagisu

Guitar tabs

song: battle ignition

guitar tune: normal

tab by Behnam H.
email: fixxxeroftherock@yahoo.com


Gtr. 1
     E  E  H.             W               (x4)
E||---------------------|--------------------|
B||---------------------|--------------------|
B||--2--2---------------|--------------------|
B||--2--2---------------|--------------------|
B||--0--0---------------|--------------------|
E||---------------------|--------------------|

  E  E.  S E  H           W              (x15)
-----------------------|---------------------|
-----------------------|---------------------|
-----7---7----5--------|--L------------------|
-----7---7----5--------|--L------------------|
-----------------------|---------------------|
-----------------------|---------------------|

                                 \6
  E  E.  S E  H           Q.     E  H
-----------------------|---------------------|
-----------------------|---------------------|
-----7---7----5--------|--L------0--L--------|
-----7---7----5--------|--L------------------|
-----------------------|---------------------|
-----------------------|---------------------|

  E  E  H.               W               (x4)
-----------------------|---------------------|
-----------------------|---------------------|
--2--2-----------------|---------------------|
--2--2-----------------|---------------------|
--0--0-----------------|---------------------|
-----------------------|---------------------|



Gtr. 2

  W (x15) H        E   E   E    E
|-------|---------------------------|
|-------|--------------15--13s--15--|
|-------|--------------14--12s--14--|
|-------|---------------------------|
|-------|---------------------------|
|-------|---------------------------|

   Q      E   Q.       E   E      Q     E   Q.       E   S   S
--15~--------14~----------12~--|--L--------12~-----------------|
--15~--------15~----------13~--|--L--------12~----------13s-15-|
---------14-----------14-------|-------14-----------14--12s-14-|
-------------------------------|-------------------------------|
-------------------------------|-------------------------------|
-------------------------------|-------------------------------|

   Q.       E   H           H        E   E   E    E
-------------------------|---------------------------|
--13~--------------------|-----------x--15--13s--15--|
--12~------14~--L--------|--L--------x--14--12s--14--|
-------------------------|---------------------------|
-------------------------|---------------------------|
-------------------------|---------------------------|

   Q      E   Q.       E   E      Q     E   Q.       E   S   S
--17~--------15~----------13~--|--L--------12~-----------------|
--17~--------15~----------13~--|--L--------13~----------13s-15-|
---------14-----------14-------|-------14-----------14--12s-14-|
-------------------------------|-------------------------------|
-------------------------------|-------------------------------|
-------------------------------|-------------------------------|

   Q.       E   H           H        E   E   E    E
-------------------------|---------------------------|
--13~--------------------|--------------15--13s--15--|
--12~------14~--L--------|--L--------L--14--12s--14--|
-------------------------|---------------------------|
-------------------------|---------------------------|
-------------------------|---------------------------|

   Q      E   Q.       E   E      Q     E   Q.       E   S   S
--15~--------14~----------12~--|--L--------12~-----------------|
--15~--------15~----------13~--|--L--------12~----------13s-15-|
---------14-----------14-------|-------14-----------14--12s-14-|
-------------------------------|-------------------------------|
-------------------------------|-------------------------------|
-------------------------------|-------------------------------|

   Q.       E   H           H        E   E   E    E
-------------------------|---------------------------|
--13~--------------------|-----------x--15--13s--15--|
--12~------14~--L--------|--L--------x--14--12s--14--|
-------------------------|---------------------------|
-------------------------|---------------------------|
-------------------------|---------------------------|

   Q      E   Q.       E   E      Q     E   Q.       E   S   S
--17~--------15~----------13~--|--L--------12~-----------------|
--17~--------15~----------13~--|--L--------13~----------13s-15-|
---------14-----------14-------|-------14-----------14--12s-14-|
-------------------------------|-------------------------------|
-------------------------------|-------------------------------|
-------------------------------|-------------------------------|

   Q.       E   H           H        E   E   E    E
-------------------------|---------------------------|
--13~--------------------|--------------15--13s--15--|
--12~------14~--L--------|--L--------L--14--12s--14--|
-------------------------|---------------------------|
-------------------------|---------------------------|
-------------------------|---------------------------|

   Q      E   Q.       E   E      Q     E   Q.       E   S   S
--15~--------14~----------12~--|--L--------12~-----------------|
--15~--------15~----------13~--|--L--------12~----------13s-15-|
---------14-----------14-------|-------14-----------14--12s-14-|
-------------------------------|-------------------------------|
-------------------------------|-------------------------------|
-------------------------------|-------------------------------|

   Q.       E   H           H        E   E   E    E
-------------------------|---------------------------|
--13~--------------------|-----------x--15--13s--15--|
--12~------14~--L--------|--L--------x--14--12s--14--|
-------------------------|---------------------------|
-------------------------|---------------------------|
-------------------------|---------------------------|

   Q      E   Q.       E   E      Q     E   Q.       E   S   S
--17~--------15~----------13~--|--L--------12~-----------------|
--17~--------15~----------13~--|--L--------13~----------13s-15-|
---------14-----------14-------|-------14-----------14--12s-14-|
-------------------------------|-------------------------------|
-------------------------------|-------------------------------|
-------------------------------|-------------------------------|

   Q.       E   H           H        E  Q.       W  (x8)
-------------------------|---------------------|-------|
--13~--------------------|---------------------|-------|
--12~------14~--L--------|--L--------L---------|-------|
-------------------------|---------------------|-------|
-------------------------|---------------------|-------|
-------------------------|---------------------|-------|



Gtr. 3

           |---3---|               |---3---|
  W (x31)  S   S   S   Q     Q     S   S   S   Q       W
|-------|--12h-15p-12~-L----------------------------|-------------------|
|-------|--------------------------12h-13s-15~-L----|--L----------------|
|-------|-------------------14~---------------------|-------------------|
|-------|-------------------------------------------|-------------------|
|-------|-------------------------------------------|-------------------|
|-------|-------------------------------------------|-------------------|

                      |----3---|
  E     E   H         E   E    E
-----<>15~--L---------------------|
-----<>15~--L------------15p--13--|
---------------------14-----------|
----------------------------------|
----------------------------------|
----------------------------------|

              |---3---|                       |---3--|
   S  S  S S  S   S   S  S  S  S   S  S  S E  S   S  S
-------------------------------------------------------|
--15----12---12h-13p-12--------------------------------|
-----14-----------------14-12--------12----x-----------|
------------------------------14p-12----14-x--9h-10p-9-|
-------------------------------------------------------|
-------------------------------------------------------|

   S S  S  S  S  S  S   S  S  S  S   S  Q       Q    E   Q     Q.
---------------------------------------------|-------------------------|
---------------------------------------------|-------------------------|
---------------------------------------------|-------------------------|
-----9---------------------------------------|----------------/9~------|
--12---10-10-10-12--------10----10s-12~-L----|--L----L\----------------|
-------------------10h-12----12--------------|-------------------------|

  E    Q.      E    Q      E     E  E   S  S   E    S    S   S   E.    E
-------------------------------|-------------------------------------------|
-------------------------------|-----------------------------13~-------15~-|
-------------------------------|--------12~----12~--12s~-14~-----14~-------|
-----/10~---------/14~----12~--|-L--14~----14~-----------------------------|
-------------------------------|-------------------------------------------|
-------------------------------|-------------------------------------------|

  E   S   S  S  E.   E    E    Q        H.           Q
--------------------12~--15~--15~----|--L------------L\----|
--L--13p-12---------13~--15~--15~----|--L------------L\----|
------------14-12--------------------|---------------------|
-------------------------------------|---------------------|
-------------------------------------|---------------------|
-------------------------------------|---------------------|

    H         E     Q.         Q.      E   H
--/12~--------L\------------|-----------------------|
--/13~--------L\--/10~------|--L--------------------|
-------------------/9~------|--L------/5~--L--------|
----------------------------|---------/5~--L--------|
----------------------------|-----------------------|
----------------------------|-----------------------|

                                             W       W
   Q.      Q     E   E   E      H.           Q       W
-----------------------------|--------------------|-------------------|
-----------------------------|--------------------|-------------------|
-----------------------------|--------------------|-------------------|
--/5~------------------------|--------------------|-------------------|
--/5~------3~----5~------3~--|--L------------L----|--L----------------|
---------------------5~------|--------------------|-------------------|

  W
  E  Q     E  H
-----------------------|-------||
-----------------------|-------||
-----------------------|-------||
-----------------------|-------||
--L--L\----------------|-------||
-----------------------|-------||



Bass Gtr.
     E  E  H.             W  (x4)
B||---------------------|-------|
B||---------------------|-------|
B||---------------------|-------|
E||--5--5---------------|-------|

 W                  W                  W                  W
------------------|------------------|------------------|------------------|
------------------|------------------|------------------|------------------|
------------------|------------------|------------------|------------------|
-5----------------|-L----------------|-3----------------|-L----------------|

 W                  W                  W                  W             (x4)
------------------|------------------|------------------|------------------|
------------------|------------------|------------------|------------------|
------------------|------------------|------------------|------------------|
-1----------------|-L----------------|-3----------------|-L----------------|

  E  E  H.                             (x4)
---------------------|-------------------||
---------------------|-------------------||
---------------------|-------------------||
--5--5---------------|-------------------||

Comments