Log in

One click and you are in

Login with Facebook Login with Google

Why sign up and log in

Guitar Tabs Explorer
Saetia tabs for Becoming the truth

Guitar tabs with lyrics

Song - Becoming The Truth
Album - A chord diagramA augmentedA Retrospective
Tabbed By: SumFX (Tyler Freear)

Awesome Song By A chord diagramA augmentedA 'Real' Screamo Band!

I Have Tabbed Both Guitars

Left Speaker - Guitar 1 | Right Speaker - Guitar 2
Tuning - Drop A chord diagramD MajorD

. = Palm Mute
/\ = Slides


Intro Guitar 1
|----x3----------------|------------|
|----------------------|------------|
|----------------------|-9--10--12--|
|-8888-8--2-3-2-3-2-3--|-x--x---x---|
|-8888-8--2-3-2-3-2-3--|-7--8---10--|
|-8888-8--2-3-2-3-2-3--|------------|
  ....


Intro Guitar 2
|---------x3----------------|------|
|---------------------------|------|
|--------------9/10-9/10-9--|--5---|
|-8888-8--3333-x-x--x-x--x--|--x---|
|-8888-8--3333-7/8\-7/8\-7--|--3---|
|-8888-8--3333--------------|------|
  ....    ....

Guitar Trade Off 0.21

Verse Riff 0.30 (Both Guitars)
|-------------------------------------|
|-------------------------------------|
|--------------------------------555--|
|-------------3-2-0--333--3-2-0--xxx--|
|-000-333-000-3-2-0--111--3-2-0--333--|
|-000-333-000-3-2-0-------3-2-0-------|

Pre Chorus
0.47 (Both Guitars)
|---------------|
|---------------|
|---------------|
|-000000000000--|
|-000000000000--|
|-000000000000--|
  ............


Chorus pt.1 0.51
|--------x3--------------|-----------|
|------------------------|-----------|
|------------------------|-----------|
|-7-8-7-8-7---2-3-2-3-2--|-000000000-|
|-7-8-7-8-7---2-3-2-3-2--|-000000000-|
|-7-8-7-8-7---2-3-2-3-2--|-000000000-|
                           .........


Chorus pt.2
Guitar 1
|-------X3---------------|--------------|
|------------------------|--------------|
|------------------------|-----3--3--3--|
|-7-8-7-8-7---2-3-2-3-2--|-0---0--0--0--|
|-7-8-7-8-7---2-3-2-3-2--|-0------------|
|-7-8-7-8-7---2-3-2-3-2--|-0------------|

Guitar 2
|-------X3---------------|--------------|
|------------------------|--------------|
|------------------------|--------------|
|-7-8-7-8-7---2-3-2-3-2--|-0---1--1--1--|
|-7-8-7-8-7---2-3-2-3-2--|-0---1--1--1--|
|-7-8-7-8-7---2-3-2-3-2--|-0---1--1--1--|


Bridge
Guitar 1
Clean - 1.25
|-----------------|
|-----------------|
|------7-------7--|
|---7----7--------|
|-5---------5-----|
|-----------------|

Both Guitars
1.28
|---------------|
|---------------|
|---------------|
|-1---1---1--0--|
|-1---1---1--0--|
|-1---1---1--0--|

Fill
1.40 (Both Guitars)
|--------------|
|--------------|
|--------------|
|-0-00-0-00-0--|
|-0-00-0-00-0--|
|-0-00-0-00-0--|
    ..   ..

Guitar 2

Solo
1.52
|---------------------------------------|
|---------------------------------------|
|-777--101010-777--10-9-33---10-9--555--|
|---------------------------------------|
|-555--8-8-8--555--8--7-11---8--7--333--|
|---------------------------------------|


Outro (Both Guitars)
|--------x3--------------|-----------|
|------------------------|-----------|
|------------------------|-----------|
|-7-8-7-8-7---2-3-2-3-2--|-0---------|
|-7-8-7-8-7---2-3-2-3-2--|-0---------|
|-7-8-7-8-7---2-3-2-3-2--|-0---------|


Structure

Intro
Trade Off

Verse

Pre Chorus

Chorus pt.1

Chorus pt.2

Bridge
Fill

Verse w/Solo

Pre Chorus

Chorus

Outro

This Was A chord diagramA augmentedA Tricky One!

Almost there ...

Sign in to get your own page with links to favourite songs and more. You are just one click away...

Login with Facebook Login with Google