Log in

One click and you are in

Login with Facebook Login with Google

Why sign up and log in

Guitar Tabs Explorer
Sadus bass tabs for Machines

Bass tabs

This is a SADUS song.....its on a fretless and this is only the stuff he does
during the guitar solos.....its fast and mixed out so its as close as i can
get.....if you haven't heard this its on the "Vision of Misery" LP.....Steve
DiGiorgio is god..............................


G-----------------------|--------------------------------------------------
D-----------------------|--------------------------------------------------
A--7-------5--7-------7-|--7-7-7\8-8-8-8-8-8-8\10-10-10-10-/8
E---0--0---------0------|--------------------------------------------------

G------------------9--9----------------------------------------------------
D--9--10--12------------12--10--9----4-5-6-7-6-5-4-(big hammer-on)-
A--------------------------------------------------------------------------
E--------------------------------------------------------------------------

G--------------------------------------------------------------------------
D--5--4--3--2--0--2(pull off then back to first bar,another hammer-on/off)
A--------------------------------------------------------------------------
E--------------------------------------------------------------------------

If you have any questions/ comments write to jucyfrt or brainclog...if you
have any sadus b tab.......POST IT!!!!!!!!!!!!!!!!!!

Almost there ...

Sign in to get your own page with links to favourite songs and more. You are just one click away...

Login with Facebook Login with Google