Log in

One click and you are in

Login with Facebook Login with Google

Why sign up and log in

Guitar Tabs Explorer
Sabbat tabs for Mions hill

Guitar tabs

This tab is version of Mion's Hill from Sabbat EP 1985...only rhythm guitar and clean

intro.Sorry,I can't tab solos or drums and bass so I show you only the guitar.There is it...

Tunning:Standart

1.Clean intro - I am not sure for the hammer on and pull of on A chord diagramBB string but there are so
many different versions...of course this isn't wrong,maybe isn't the version from the
EP but it isn't so important

0:00 - 0:05 Tempo - 90

A chord diagramE MajorE||--------------------------|-----------------------------|
A chord diagramBB||--------------0--------1--|--------0-----0h-1p-0--------|
A chord diagramG+G||--------2--------2--------|--2--------2-----------2-----|
A chord diagramD MajorD||-----2-----2--------2-----|-----2--------------------2--|
A chord diagramA augmentedA||--0-----------------------|-----------------------------|
A chord diagramE MajorE||--------------------------|-----------------------------|

0:06 - 0:11-0:012

A chord diagramE MajorE|--------------------------|----------------------------|
A chord diagramBB|--------------0--------1--|--------0-----1-------------|
A chord diagramG+G|-------2--------2--------|--2--------2-----2-----------|
A chord diagramD MajorD|-----2-----2--------2-----|-----2----------------------|
A chord diagramA augmentedA|--0-----------------------|--------------------3--2----|
A chord diagramE MajorE|--------------------------|----------------------------|
End of the intro a little bit slow

0:26-7 0:

A chord diagramE MajorE|--------------------------|
A chord diagramBB|--------------0--------1--|
A chord diagramG+G|--------2--------2--------|
A chord diagramD MajorD|-----2-----2--------2-----|
A chord diagramA augmentedA|--0-----------------------|
A chord diagramE MajorE|--------------------------|

0:31

A chord diagramE MajorE|--------------------------|
A chord diagramBB|--1-p0--------------------|
A chord diagramG+G|--2-----------------------|
A chord diagramD MajorD|--2-----------------------|
A chord diagramA augmentedA|--0-----------------------|
A chord diagramE MajorE|--------------------------|

Next part...riff with distortion

0:34 Tempo - 88

A chord diagramE MajorE|----------------------|
A chord diagramBB|----------------------|
A chord diagramG+G|----------------------|
A chord diagramD MajorD|--------2---------2---|
A chord diagramA augmentedA|--3--2--0---3--2--0---|x2
A chord diagramE MajorE|----------------------|

A chord diagramE MajorE|----------------------|----------------------|
A chord diagramBB|----------------------|----------------------|
A chord diagramG+G|----------------------|----------------------|
A chord diagramD MajorD|----------------------|----------------------|
A chord diagramA augmentedA|--3--2--3---3--2--3---|--3--2--5---3--2--2---|
A chord diagramE MajorE|--------1---------1---|--------3---------0---|

End of this part is...

0:50-1

E-----------------|
B-----------------|
G--------2--------|
D--5--4--2--------|
A--3--2--0--------|
E-----------------|

Next riff is...

0:58-9 Tempo - 114

A chord diagramE MajorE|-------------------------------|
A chord diagramBB|-------------------------------|
A chord diagramG+G|-------------------------------|
A chord diagramD MajorD|--2----------2----------2------|
A chord diagramA augmentedA|--0--0-0-0-0-0--0-0-0-0-0--0-0-|
A chord diagramE MajorE|-------------------------------|

E-------------------------------|--------------------------------|
B-------------------------------|--------------------------------|
G-------------------------------|--------------------------------|
D------2------------------------|--------------------------------|
A--0-0-0--0-0-0-0-3----------3--|----------5----------2----------|
E-----------------1--1-1-1-1-1--|--1-1-1-1-3--3-3-3-3-0--0-0-0-0-|

Next Riff...SACRIFICE!Knell in front of the Devil's King!

1:24 Tempo - 114

E-----------------------------|-------------------------------|
B-----------------------------|-------------------------------|
G-----------------------------|-------------------------------|
D--7--7-7-7-7-4--5--4--2------|------2------------------------|
A--5--5-5-5-5-2--3--2--0--0-0-|--0-0-0--0-0-0-0-3----------5--|
E-----------------------------|-----------------1--1-1-1-1-3--|

E--------------------------------|
B--------------------------------|
G--------------------------------|
D--------------------------------|
A----------2----------2----------|
E--3-3-3-3-0--0-0-0-0-0--0-0-0-0-|

and the end of the part is again this...

I think at 1:36-7

E-----------------------|
B-----------------------|
G-----------------------|
D-----------------------|
A-2----------2----------|
E-0--0-0-0-0-0--0-0-0-0-|

Next part is something like that...

E--------------------------------------------------|
B--------------------------------------------------|
G--------------------------------------------------|
D--7s-9-9-9-9-9-7s-9-9-9-9-9-7s-9-9-9-9-9-7--5--4--|
A--5s-7-7-7-7-7-5s-7-7-7-7-7-5s-7-7-7-7-7-5--3--2--|
E--------------------------------------------------|...and again play the riff at
0:58-9...next is solo with the same riff.

Next part is a little bit slower...there is

I think at 2:35-6 Tempo 120

A chord diagramE MajorE|--------------------|
A chord diagramBB|--------------------|
A chord diagramG+G|--------------------|
A chord diagramD MajorD|--2--------2--------|
A chord diagramA augmentedA|--0--------0--------|
A chord diagramE MajorE|--------------------|

E------------------------|---------------------|------------------------|
B------------------------|---------------------|------------------------|
G------------------------|---------------------|------------------------|
D--2--5----4-------------|---------------------|--------------5----4----|
A--0--3----2--5----------|--3------3--3--------|--x--x--------3----2----|
E-------------3---0---1--|--1------1--1--------|--x--x--1--3------------|
Play it 4 times....

Next is this...at 3:07-8 Tempo - 112

E------------------------|------------------------|------------------------|
B------------------------|------------------------|------------------------|
G------------------------|------------------------|------------------------|
D--2--2------2-----------|------------2-----------|------------2-----------|
A--0--0--3-5---5-3-5-3-2-|--3--3--3-5---5-3-5-3-2-|--5--5--3-5---5-3-5-3-2-|
E------------------------|--1--1------------------|--3--3------------------|

E------------------------|
B------------------------|
G------------------------|
D------------------------|
A--2--2------2-------2-3-|I am not sure but...listen the song and try it
E--0--0--3-5---5-3-5-----|

And this is the next part...at 3:20-1 Tempo - 114

A chord diagramE MajorE|------------------------|------------------------|
A chord diagramBB|------------------------|------------------------|
A chord diagramG+G|------------------------|------------------------|
A chord diagramD MajorD|--2----------2----------|------------------------|
A chord diagramA augmentedA|--0--0-0-0-0-0--0-0-0-0-|--3----------3----------|
A chord diagramE MajorE|------------------------|--1--1-1-1-1-1--1-1-1-1-|

E------------------------|------------------------|
B------------------------|------------------------|
G------------------------|------------------------|
D------------------------|------------------------|
A--5----------5----------|--2----------2----------|
E--3--3-3-3-3-3--3-3-3-3-|--0--0-0-0-0-0--0-0-0-0-|

At 3:33-4 start again with this riff

A chord diagramE MajorE|-------------------------------|
A chord diagramBB|-------------------------------|
A chord diagramG+G|-------------------------------|
A chord diagramD MajorD|--2----------2----------2------|
A chord diagramA augmentedA|--0--0-0-0-0-0--0-0-0-0-0--0-0-|
A chord diagramE MajorE|-------------------------------|

E-------------------------------|--------------------------------|
B-------------------------------|--------------------------------|
G-------------------------------|--------------------------------|
D------2------------------------|--------------------------------|
A--0-0-0--0-0-0-0-3----------3--|----------5----------2----------|
E-----------------1--1-1-1-1-1--|--1-1-1-1-3--3-3-3-3-0--0-0-0-0-|

At 4:26-7 again this...

E-----------------------------|-------------------------------|
B-----------------------------|-------------------------------|
G-----------------------------|-------------------------------|
D--7--7-7-7-7-4--5--4--2------|------2------------------------|
A--5--5-5-5-5-2--3--2--0--0-0-|--0-0-0--0-0-0-0-3----------5--|
E-----------------------------|-----------------1--1-1-1-1-3--|

E--------------------------------|
B--------------------------------|
G--------------------------------|
D--------------------------------|
A----------2----------2----------|
E--3-3-3-3-0--0-0-0-0-0--0-0-0-0-|

E-----------------------|
B-----------------------|
G-----------------------|
D-----------------------|
A-2----------2----------|
E-0--0-0-0-0-0--0-0-0-0-|

At 4:41 I think is this riff again:

E--------------------------------------------------|
B--------------------------------------------------|
G--------------------------------------------------|
D--7s-9-9-9-9-9-7s-9-9-9-9-9-7s-9-9-9-9-9-7--5--4--|
A--5s-7-7-7-7-7-5s-7-7-7-7-7-5s-7-7-7-7-7-5--3--2--|
E--------------------------------------------------|

And to the end play that

E----------------------    |----------------------|----------------------|
B----------------------    |----------------------|----------------------|
G----------------------    |----------------------|----------------------|
D--------2---------2--- x2 |----------------------|----------------------|
A--3--2--0---3--2--0---    |--3--2--3---3--2--3---|--3--2--5---3--2--2---|
E----------------------    |--------1---------1---|--------3---------0---|

E----------..
B----------..
G----------..
D--------2-..
A--3--2--0-..
E----------..

I worked ONLY with first version of Mion's Hill from the Sabbat ep from 85 so if you try
to play other version with this tab you can find some differences...but I hope will
help you with this one.If you want GP5 Version write to me private message.Enjoy :-)

Almost there ...

Sign in to get your own page with links to favourite songs and more. You are just one click away...

Login with Facebook Login with Google