Log in

One click and you are in

Login with Facebook Login with Google

Why sign up and log in

Guitar Tabs Explorer
Sabbat tabs for Hosanna in excelsis

Guitar tabs

RIFF A:
   1
  |------------------------------------------------------------------|
  |------------------------------------------------------------------|
  |------------------------------------------------------------------|
  |---------------------------------------------------------H--------|
  |---------2-------3-------5-------3-------2---------------3--------|
  |-0---0-------0-------0-------0-------0-------0---0---0------------|
   2
  |------------------------------------------------------------------|
  |------------------------------------------------------------------|
  |------------------------------------------------------------------|
  |-----------------------------------------5---------------2--------|
  |---------2-------3-------5-------3-3-3-3-3-------0-0-0-0-0--------|
  |-0---0-------0-------0--------------------------------------------|
  3
  |------------------------------------------------------------------|
  |------------------------------------------------------------------|
  |------------------------------------------------------------------|
  |---------------------------------5---------------4----------------|
  |---------2-------3-------5-------3---------------2-------0---0----|
  |-0---0-------0-------0--------------------------------------------|

  1,2  x 3
  1     x 1
  3     x 1

  RIFF B:
   1
  |------------------------------------------------------------------|
  |-----------------------------------------------------H------------|
  |---------------------------------0-h-2-------0-h-2---3---2h3p2----|
  |-2-------------------------------0-h-2-------0-h-2----------------|
  |-0-------0---0---0---0---0---0-----------0------------------------|
  |------------------------------------------------------------------|
   2
  |------------------------------------------------------------------|
  |------------------------------------------------------------------|
  |---------------------------------0-h-2-------0-h-2-------7\-------|
  |-2-------------------------------0-h-2-------0-h-2-------7\-------|
  |-0-------0---0---0---0---0---0-----------0------------------------|
  |------------------------------------------------------------------|
   3
  |------------------------------------------------------------------|
  |---------------------------------1h2p1----------------------------|
  |-----------------------------------------0h1p0--------------------|
  |-2-----------------------------------------------0h1p0------------|
  |-0-------0---0---0---0---0---0---------------------------0h1p0----|
  |------------------------------------------------------------------|
  1   x 1
  2   x 1
  1   x 1
  3   x 1

   RIFF C:
   1
  |------------------------------------------------------------------|
  |------------------------------------------------------------------|
  |------------------------------------------------------------------|
  |-4----------------------------------------------------------------|
  |-4-------------------------------4-------X-------4-------5--------|
  |-2-------2---2---2---2---2---2---2-------X-------2-------3--------|
  2
  |------------------------------------------------------------------|
  |------------------------------------------------------------------|
  |------------------------------------------------------------------|
  |-4-----------------------------------------------4-p-2---4-p-2----|
  |-4---------------------------------------4-p-2--------------------|
  |-2-------2---2---2---2---2---2---3-p-2----------------------------|
   3
  |------------------------------------------------------------------|
  |------------------------------------------------------------------|
  |------------------------------------------------------------------|
  |-4-------------------------------3--------------------------------|
  |-4-------------------------------3--------------------------------|
  |-2-------2---2---2---2---2---2---1--------------------------------|
  1     x 1
   2     x 1
  1     x 1
  3     x 1

   RIFF D:
   1
  |------------------------------------------------------------------|
  |------------------------------------------------------------------|
  |------------------------------------------------------------------|
  |---------------2h5p2---------------------------2h5p2--------------|
  |-0-------5---------------5-------0-------5---------------5--------|
  |------------------------------------------------------------------|
    2
  |------------------------------------------------------------------|
  |------------------------------------------------------------------|
  |------------------------------------------------------------------|
  |---------------2h5p2----------------------------------------------|
  |-0-------5---------------5---------------3-------2----------------|
  |---------------------------------5-----------------------3--------|
   3
  |------------------------------------------------------------------|
  |------------------------------------------------------------------|
  |------------------------------------------------------------------|
  |---------------2h5p2-------------5---------------7-----2h5p2------|
  |-0-------5---------------5-------3---------------5----------------|
  |------------------------------------------------------------------|
 1     x 1
  2     x 1
  1     x 1
  3     x 1

   RIFF E:
   1
  |------------------------------------------------------------------|
  |------------------------------------------------------------------|
  |------------------------------------------------------------------|
  |-3-----------------------------------------------6---5---3--------|
  |-1---5---5---5---5---5---5---5---5---5---5---5---4---3---1---5----|
  |-----3---3---3---3---3---3---3---3---3---3---3---------------3----|
   2
  |------------------------------------------------------------------|
  |------------------------------------------------------------------|
  |---------H-----------H----------H-----------H--------------------|
  |---------5-----------5-----------5-----------5-----------5--\-----|
  |-5---5-------5---5-------5---5-------5---5-------5---5---3---\----|
  |-3---3-------3---3-------3---3-------3---3-------3---3------------|
   3
  |------------------------------------------------------------------|
  |------------------------------------------------------------------|
  |---------H-----------H-------------------------------------------|
  |---------5-----------5-----------H-----------H-----------5-------|
  |-5---5-------5---5-------5---5---5---5---5---5---5---5---3--------|
  |-3---3-------3---3-------3---3-------3---3-------3---3------------|
  1     x 1
  2     x 1
  1     x 1
  3     x 1

   RIFF F:
  |------------------------------------------------------------------|
  |------------------------------------------------------------------|
  |------------------------------------------------------------------|
  |-9---------------9---------------9---------------9--hph--10-------|
  |-7---------------7---------------7---------------7-78787-8--------|
  |-0---0-0-0-0-0-0-0---0-0-0-0-0-0-0---0-0-0-0-0-0------------------|

  |------------------------------------------------------------------|
  |------------------------------------------------------------------|
  |------------------------------------------------------------------|
  |-9---------------9---------------9---------------9-7h8p7----------|
  |-7---------------7---------------7---------------7-------8--------|
  |-0---0-0-0-0-0-0-0---0-0-0-0-0-0-0---0-0-0-0-0-0---------6--------|

    RIFF G:
  |------------------------------------------------------------------|
  |------------------------------------------------------------------|
  |------------------------------------------------------------------|
  |-2-------------------------------2---------------3-------3--------|
  |-2-------------------------------2---------------3-------3--------|
  |-0-------------------------------0-------0---0-0-1---0-0-1--------|

  |------------------------------------------------------------------|
  |------------------------------------------------------------------|
  |------------------------------------------------------------------|
  |-2-------------------------------2---------------3-------3--------|
  |-2-------------------------------2---------------1-------1--------|
  |-0-------------------------------0-------0---0-0-----0-0----------|

whole song:

  riff A chord diagramA augmentedA x  1
  riff A chord diagramBB x  1
  riff A chord diagramC majorC x  2
  riff A chord diagramD MajorD x  2
  riff A chord diagramE MajorE x  2
 repeat

  riff A chord diagramFF x 8 (Solo)
  riff A chord diagramG+G  x 4

  riff A chord diagramA augmentedA x  1
  riff A chord diagramBB x  1
  riff A chord diagramC majorC x  2
  riff A chord diagramD MajorD x  2
  riff A chord diagramE MajorE x  2

  riff A chord diagramA augmentedA (1st part)

Almost there ...

Sign in to get your own page with links to favourite songs and more. You are just one click away...

Login with Facebook Login with Google