Search tabs and chords

Search for song, artist or band

Log in

One click and you are in

Login with Facebook Login with Google

Why sign up and log in

Guitar Tabs Explorer
Rzeznik Johnny guitar tabs for Im still here

Guitar tabs

"I'm Still Here"
by Johnny Rzeznik

chords used:
A    (x02220)
Dsus2(xx0230)
A chord diagramAsusAsus (x02230)
Verse:

 A                  Dsus2             
|----------0-------|----------0-------|
|-------2-----2----|-------3-----3----|  (7 times)
|----2-----------2-|----2-----------2-|
|------------------|-0----------------|
|-0----------------|------------------|
|------------------|------------------|

  I           am  a  question...
  world,      not an answer...
  heard,      or  a  moment...
  held        in your..

  What        do you think...
  say         I won't...
anyway        you don't...


Bridge 1:

 A         Dsus2     Asus        
|------------------|-0----------------|
|-------2--------3-|-3----------------|
|----2--------2----|-2----------------|
|-2--------0-------|-2----------------|
|------------------|------------------|
|------------------|------------------|

I'll never be what...

Bridge 2:

 Asus                             
|----------0-------|------------------|
|-------3-----3----|------------------|
|----2-----------2-|------------------|
|------------------|-2--0-----2--0----|
|-0----------------|-------0--------0-|
|------------------|------------------|
 

Bridge 3:

 A                   Dsus2              A chord diagramAsusAsus
|------------------|------------------|------------------|----------------|
|------------------|-3--3--3--3--3--3-|-3--3--3--3--3--3-|----------------|
|-2--2--2--2--2--2-|-2--2--2--2--2--2-|-2--2--2--2--2--2-|----------------|
|-2--2--2--2--2--2-|-0--0--0--0--0--0-|-2--2--2--2--2--2-|-2--0-----2--0--|
|-0--0--0--0--0--0-|------------------|------------------|-------0-------0|
|------------------|------------------|------------------|----------------|

              They can't tell me...
              'Cause I'm not what...
world is still sleepin...
words are just whispers...


Chorus:
(same chords as verse)


VerseBridge 1
VerseBridge 1 & 2
Chorus, Bridge 1 & 2
VerseBridge 1 & 2
Chorus, Bridge 1 & 2
Bridge 3 (4 times)
Chorus
Bridge 1 (strum)


I think that's basically everything; hope it helps somebody!
I figured this out listening to the song from the soundtrack of the movie
"Treasure Planet." Feel free to make changes/additions if you think I
made
any mistakes or missed anything.

-Karl Johnson
 kej9@cornell.edu

Other versions of I'm Still Here

I'm still hereChords
I'm still here jims themeChords

Almost there ...

Sign in to get your own page with links to favourite songs and more. You are just one click away...

Login with Facebook Login with Google