Log in

One click and you are in

Login with Facebook Login with Google

Why sign up and log in

Guitar Tabs Explorer
Rytsarnye Rytsari  bass tabs for Терпеть

Терпеть bass tab by Rytsarnye Rytsari

Rytsarnye Rytsari  bass tabs for Терпеть

Bass tabs

Tuning: Standard (E A D G)


Intro:

G||--------------------------|--------------------------|
D||--------------------------|--------------------------|
A||--------------------------|--------------------------|
E||--5--5--5--5--5--5--5--5--|--7--7--7--8--8--8--8--8--|

G||--------------------------|----------------------------------|
D||--------------------------|----------------------------------|
A||--------------------------|----------------------------------|
E||--9--9--9--9--9--9--9--9--|--11--11--11--12--12--12--12--12--|
Verse:

G||--------------------------|--------------------------|
D||--------------------------|--------------------------|
A||--------------------------|--------------------------|
E||--5--5--5--5--5--5--5--5--|--5--5--5--5--5--5--5--5--|

G||--------------------------|--------------------------|
D||--------------------------|--------------------------|
A||--------------------------|--------------------------|
E||--5--5--5--5--5--5--5--5--|--5--5--5--5--6--6--7--7--|

G||--------------------------|--------------------------|
D||--------------------------|--------------------------|
A||--------------------------|--------------------------|
E||--9--9--9--9--9--9--9--9--|--9--9--9--9--9--9--9--9--|

G||--------------------------|------------------------------|
D||--------------------------|------------------------------|
A||--------------------------|------------------------------|
E||--9--9--9--9--9--9--9--9--|--9--9--9--9--10--10--11--11--|

Chorus:

G||--------------------------|--------------------------|
D||--------------------------|--------------------------|
A||--------------------------|--------------------------|
E||--5--5--5--5--5--5--5--5--|--7--7--7--8--8--8--8--8--|


Verse 1:

G||--------------------------|--------------------------|
D||--------------------------|--------------------------|
A||--------------------------|--------------------------|
E||--5--5--5--5--5--5--5--5--|--5--5--5--5--5--5--5--5--|

G||--------------------------|--------------------------|
D||--------------------------|--------------------------|
A||--------------------------|--------------------------|
E||--5--5--5--5--5--5--5--5--|--5--5--5--5--6--6--7--7--|

G||--------------------------|--------------------------|
D||--------------------------|--------------------------|
A||--------------------------|--------------------------|
E||--9--9--9--9--9--9--9--9--|--9--9--9--9--9--9--9--9--|

G||--------------------------|------------------------------|
D||--------------------------|------------------------------|
A||--------------------------|------------------------------|
E||--9--9--9--9--9--9--9--9--|--9--9--9--9--10--10--11--11--|


Chorus 2:

G||--------------------------|--------------------------|
D||--------------------------|--------------------------|
A||--------------------------|--------------------------|
E||--5--5--5--5--5--5--5--5--|--7--7--7--8--8--8--8--8--|

G||--------------------------|----------------------------------|
D||--------------------------|----------------------------------|
A||--------------------------|----------------------------------|
E||--9--9--9--9--9--9--9--9--|--11--11--11--12--12--12--12--12--|


Outro:

G||--------------------------|----------------------------------|
D||--------------------------|----------------------------------|
A||--------------------------|----------------------------------|
E||--6--6--6--6--6--6--6--6--|--12--12--12--12--12--12--12--12--|

G||--------------------------|----------------------------------|
D||--------------------------|----------------------------------|
A||--------------------------|----------------------------------|
E||--6--6--6--6--6--6--6--6--|--12--12--12--12--12--12--12--12--|

G||-------------------||
D||-------------------||
A||-------------------||
E||--6----------------||

Almost there ...

Sign in to get your own page with links to favourite songs and more. You are just one click away...

Login with Facebook Login with Google