Log in

One click and you are in

Login with Facebook Login with Google

Why sign up and log in

Guitar Tabs Explorer
Serena Ryder bass tabs for Weak in the knees

Bass tabs

Verse:

G|-----------------|-----------------|-----------------|-----------------|
D|-----------------|-----------------|-----------------|-----------------|
A|-8---------------|-5---------------|-----------------|-----------------|
E|-----------------|-----------------|-6---------------|-8---------------|
Chorus:

G|-----------------|-----------------|-----------------|-----------------|
D|-----------------|-----------------|-----------------|-----------------|
A|-----------------|-8---7---6---5---|-----------------|-8---7---6---5---|
E|-6-------8-------|-----------------|-6-------8-------|-----------------|

G|-----------------|-----------------|-----------------|-----------------|
D|-----------------|-----------------|-----------------|-----------------|
A|-----------------|-8---7---6---5---|-----------------|-----------------|
E|-6-------8-------|-----------------|-6-6-6-6-6-6-6-6-|-8-8-8-8-8-8-8-8-|

G|-----------------|-----------------|
D|-----------------|-----------------|
A|-8------7--------|-5---------------|
E|-----------------|-----------------|


Verse 2:

G|-----------------|-----------------|-----------------|-----------------|
D|-----------------|-----------------|-----------------|-----------------|
A|-8-------8-------|-5-------5-5-----|-----------------|-----------------|
E|-----------------|-----------------|-6-------6---6---|-8-------6/8-8---|

G|-----------------|-----------------|-----------------|-----------------|
D|-----------------|-----------------|-----------------|-----------------|
A|-8-------8-------|-5-------5-5-----|-----------------|-----------------|
E|-----------------|-----------------|-6---------------|-8-------8-8-8-8-|

Chorus 2:

G|-----------------|-----------------|-----------------|-----------------|
D|-----------------|-----------------|-----------------|-----------------|
A|-----------------|-8---7---6---5---|-----------------|-8---7---6---5---|
E|-6-------8-------|-----------------|-6-------8-------|-----------------|

G|-----------------|-----------------|-----------------|-----------------|
D|-----------------|-----------------|-----------------|-----------------|
A|-----------------|-8---7---6---5---|-----------------|-----------------|
E|-6-------8-------|-----------------|-6-6-6-6-6-6-6-6-|-8-8-8-8-8-8-8-8-|


Bridge:

G|-----------------|-----------------|-----------------|-----------------|
D|-----------------|-----------------|-----------------|-----------------|
A|-5-5-5-5-5-5-5-5-|-----------------|-5-5-5-5-5-5-5-5-|-----------------|
E|-----------------|-6-6-6-6-6-6-6-6-|-----------------|-6-6-6-6-6-6-6-6-|

G|-----------------|-----------------|
D|-----------------|-----------------|
A|-5-5-5-5-5-5-5-5-|-----------------|
E|-----------------|-6-6-6-6-6-6-6-6-|


Chorus 3:

G|-----------------|-----------------|-----------------|-----------------|
D|-----------------|-----------------|-----------------|-----------------|
A|-----------------|-----------------|-----------------|-----------------|
E|-----------------|-----------------|-----------------|-----------------|

G|-----------------|-----------------|-----------------|-----------------|
D|-----------------|-----------------|-----------------|-----------------|
A|-----------------|-8---7---6---5---|-----------------|-----------------|
E|-6-------8-------|-----------------|-6-6-6-6-6-6-6-6-|-8-8-8-8-8-8-8-8-|

G|-----------------|-----------------|-----------------|-----------------|
D|-----------------|-----------------|-----------------|-----------------|
A|-----------------|-8---7---6---5---|-----------------|-8---7---6---5---|
E|-6-------8-------|-----------------|-6-------8-------|-----------------|

G|-----------------|-----------------|-----------------|-----------------|
D|-----------------|-----------------|-----------------|-----------------|
A|-----------------|-8---7---6---5---|-----------------|-----------------|
E|-6-------8-------|-----------------|-6-6-6-6-6-6-6-6-|-8-8-8-8-8-8-8-8-|


Outro:

G|-----------------|-----------------|
D|-----------------|-----------------|
A|-8---7---5---5---|-5---------------|
E|-----------------|-----------------|

************************************

| /  Slide up

Almost there ...

Sign in to get your own page with links to favourite songs and more. You are just one click away...

Login with Facebook Login with Google