Take It All Away by Cabrera Ryan

Take It All Away tab by Cabrera Ryan

Guitar tabs

Tuning: whole step down

INTRO/VERSE:

e|--0----0----0----0---|
b|--0----0----0----0---|
G|--9----8----6----8---|
D|--9----9----6----9---|
A|--7----6----4----6---|
E|--x----x----x----x---|

PRE-CHORUS:

e|--0----0----0----5--|
b|--0----0----0----5--|
G|--6----5----6----5--|
D|--6----6----7----7--|
A|--4----3----7----7--|
E|--x----x----5----5--|

CHORUS:

e|--0----0----0----0--|
b|--0----0----0----0--|
G|--9----8----6----5--|
D|--9----9----6----5--|
A|--7----6----4----3--|
E|--x----x----x----x--|

BRIDGE:

G, D, C9, D

End On:

e|--7--|
b|--8--|
G|--9--|
D|--9--|
A|--7--|
E|--x--|

Other versions of Take It All Away

Alternative guitar chords and tabs for Take It All Away by Cabrera Ryan

Find guitar tabs and chords

A B C D E F G H I J K L M N O P Q R S T U V W X Y Z #