Log in

One click and you are in

Login with Facebook Login with Google

Why sign up and log in

Guitar Tabs Explorer
Cabrera Ryan tabs for Shine on

Guitar tabs with lyrics

Shine On

By: Ryan Cabrera
TUNING: Eb,Bb,Gb,Db,Ab,Eb
p=pull off


INTRO:play this palm muted


e|-----| |-----------|---------|-------|
b|-----| |-----------|---------|-------|
g|-----| |-----------|-----5-4-|-------|
A chord diagramD MajorD|-----| |-------7-5-|---------|-------|
A chord diagramA augmentedA|-----| |-----------|-0-3-----|-----3-|
A chord diagramE MajorE|-12\-| |-4/5-5-----|---------|-0-1---|
                 given every moment i had


|------5---3-|-----------|---------|
|------5---3-|-----------|---------|
|------------|-----------|-----5-4-|
|-2p0--------|-------7-5-|---------|
|----3---2---|-----------|-0-3-----|
|------------|-3/5-5-----|---------|
                        still i can...

|-----------|-----------|
|-----------|-----------|
|-----------|---4-------| 2X
|-------2p0-|---------7-|
|-----3-----|-----------|
|-0-1-------|-3---3/5---|
    you...

[Chorus]

e|-5-|-x-|-3-|-1-|-3-|
b|-5-|-x-|-3-|-1-|-3-|
g|-5-|-0-|-0-|-2-|-4-|
A chord diagramD MajorD|-7-|-6-|-0-|-3-|-5-|
A chord diagramA augmentedA|-7-|-7-|-0-|-3-|-5-|
A chord diagramE MajorE|-5-|-4-|-3-|-x-|-x-|
   I Know...
e|-5-|-x-|-3-|
b|-5-|-x-|-3-|
g|-5-|-0-|-0-|
A chord diagramD MajorD|-7-|-6-|-0-|
A chord diagramA augmentedA|-7-|-7-|-0-|
A chord diagramE MajorE|-5-|-4-|-3-|
   I know...

C, C/B,G
shine on...

A chord diagramA minorAm
you were made to

C, C/B,G
shine on

A chord diagramA minorAm
and you know i love you

A chord diagramC majorC                           Csus2/B
and even if can or can't be friends

                          A chord diagramG+G
I'll be with you until the very end

A chord diagramA minorAm    Csus2/G
shine on...

option:

back to intro,but this time slide from
     1/5, instead of 4/5...get it? well,
     this is where the video clip ended.
     go to youtube.com for the video clip...

Csus2/B  Csus2/G    A chord diagramC/BC/B
|-3-|     |-3-|    |-0-|
|-1-|     |-0-|    |-1-|
|-0-|     |-0-|    |-0-|  chords
|-0-|     |-0-|    |-0-|
|-2-|     |-0-|    |-2-|
|-x-|     |-3-|    |-x-|

tabbed by:nher_pineda@yahoo.com

Almost there ...

Sign in to get your own page with links to favourite songs and more. You are just one click away...

Login with Facebook Login with Google