Say by Cabrera Ryan

Say tab by Cabrera Ryan

Guitar tabs

Say by Ryan Cabrera

1/2 step down

verse 1
E,xxxx53, and xxxx108 xxxx97 i'm not sure just see

what sounds better

solo

Eb|--------11--------|
Bb|----9-------------|
Gb|-10--10-----------|
Db|------------------|
Ab|------------------|
eb|------------------|

Pre chorus
xxx122 and xxx344 or

Chorus
C,E,G,xxxx53,xxxx97 and xxxx108

verse 2
E,xxxx53, and xxxx108 or xxxx97 i'm not sure just

see what sounds better.

solo

Eb|--------11--------|
Bb|----9-------------|
Gb|-10--10-----------|
Db|------------------|
Ab|------------------|
eb|------------------|


Pre chorus
xxx122 and xxx344

Chorus
xxxx53,xxxx97 and xxxx108 repeat 2 times

the where he sings ohh you used to be young etc etc.
it's just a G chord or xxx553.

when it reaches 1:32 -1:35 say say  say
            xxxx97,xxxx108,xxxx75


that's the only parts i know. i'm only 14 sorry :))
I wont be surprised if only get the solo thingy

right :) ohh yea if wanna know how he strums it palm mute or just look for the
video at youtube.:)

Other versions of Say

Alternative guitar chords and tabs for Say by Cabrera Ryan

Find guitar tabs and chords

A B C D E F G H I J K L M N O P Q R S T U V W X Y Z #