Last Winter by Cabrera Ryan

Last Winter tab by Cabrera Ryan

Guitar tabs

Tuning: Down Half step
	Figure out the strumming patterns on your own, they are not hard.
I havn't put the little details in, you can figure them out. They all central around the same four chords.

Intro
e |--------|--------|	Harmonics
B |--------|--------|	  7th
G |----1---|----2---|   FRET
D |----2---|----2---|
A |----2---|--------|
E |--------|--------|
					X2
e |--------|--------|	Harmonics
B |----5---|--------|	  9th
G |----6---|----4---|   FRET
D |----6---|----4---|
A |----4---|----2---|
E |--------|--------|

Verse-Palm muted

e |--------|--------|
B |----5---|--------|
G |----6---|----2---|
D |----6---|----2---|
A |----4---|--------|
E |--------|--------|

e |--------|--------|
B |--------|--------|
G |----1---|----4---|
D |----2---|----4---|
A |----2---|----2---|
E |--------|--------|

Chorus- strummed freely
e |--------|--------|
B |----5---|--------|
G |----6---|----2---|
D |----6---|----2---|
A |----4---|--------|
E |--------|--------|

e |--------|--------|
B |--------|--------|
G |----1---|----4---|
D |----2---|----4---|
A |----2---|----2---|
E |--------|--------|

Bridge - palm mute picking
e |--------|--------|
B |----5---|--------|
G |----6---|----2---|
D |----6---|----2---|
A |----4---|--------|
E |--------|--------|

e |--------|--------|
B |--------|--------|
G |----1---|----4---|
D |----2---|----4---|
A |----2---|----2---|
E |--------|--------|

Ooops i forgot to change the order for verse and bridge,,,, this is the right version

Find guitar tabs and chords

A B C D E F G H I J K L M N O P Q R S T U V W X Y Z #