Echo Park by Cabrera Ryan

Echo Park tab by Cabrera Ryan

Guitar tabs

Tabbed by Kevin Ward of Massachusetts

This is how it's really played.

CAPO ON SECOND FRET

Intro 1
|----3---3---3----3---3---3----3---3---3-----|
|------5---5--------5---5--------5---5-------|
|--------------------------------------------|
|-2------------0-----------------------------|
|----------------------------3----------3~---|
|--------------------------------------------|

Intro 1 cont
|----3---3---3----3---3---3------------------|
|------5---5--------5---5--------------------|
|--------------------------------------------|
|-2------------0-----------------------------|
|----------------------------3~--------------|
|--------------------------------------------|

Intro 2
|--3--33---3---3-3-3--|
|--3--33---3---3-3-3--|
|--5--55---4---4-4-4--|
|--5--55---5---5-5-5--| x4
|--3--33---5---5-5-5--|
|--3--33---3---3-3-3--|

Verse
|--3--33---3---3-3-3--|
|--5--55---3---3-3-3--|
|--5--55---4---4-4-4--|
|--5--55---5---5-5-5--| x8
|--3--33---5---5-5-5--|
|--3--33---3---3-3-3--|

Pre-chorus
|--0-0x---3-3x---3-3x---5----5-5-55-----------|
|--0-0x---5-5x---3-3x---5----5-5-55-----------|
|--0-0x---5-5x---4-4x---7----7-7-77-----------|
|--2-2x---5-5x---5-5x---7----7-7-77-----------|
|--2-2x---3-3x---5-5x---5----5-5-55-----------|
|--0-0x---3-3x---3-3x---5----5-5-55-----------|

Pre-chorus cont.
|--0---0-0--3-3-3-3--5-5-5-5x-----------------|
|--0---0-0--5-5-5-5--5-5-5-5x-----------------|
|--0---0-0--5-5-5-5--7-7-7-7x-----------------|
|--2---2-2--5-5-5-5--7-7-7-7x-----------------|
|--2---2-2--3-3-3-3--5-5-5-5x-----------------|
|--0---0-0--3-3-3-3--5-5-5-5x-----------------|

Chorus
|--0---0--00-0-0-0-0--3---3--33-3-3-3-3-------| |
|--1---1--11-1-1-1-1--5---5--55-5-5-5-5-------| |
|--2---2--22-2-2-2-2--5---5--55-5-5-5-5-------| |
|--2---2--22-2-2-2-2--5---5--55-5-5-5-5-------| |
|--0---0--00-0-0-0-0--3---3--33-3-3-3-3-------| |
|--0---0--00-0-0-0-0--3---3--33-3-3-3-3-------| |
                        |--x2
Chorus cont.                  |
|--3---3--33-3-3-3-3--5---5--55-5-5-5-5-------| |
|--3---3--33-3-3-3-3--5---5--55-5-5-5-5-------| |
|--4---4--44-4-4-4-4--7---7--77-7-7-7-7-------| |
|--5---5--55-5-5-5-5--7---7--77-7-7-7-7-------| |
|--5---5--55-5-5-5-5--5---5--55-5-5-5-5-------| |
|--3---3--33-3-3-3-3--5---5--55-5-5-5-5-------| |
                        /
Chorus cont.
|--0---0--00-0-0-0-0--3---3--33-3-3-3-3-------|
|--1---1--11-1-1-1-1--5---5--55-5-5-5-5-------|
|--2---2--22-2-2-2-2--5---5--55-5-5-5-5-------|
|--2---2--22-2-2-2-2--5---5--55-5-5-5-5-------|
|--0---0--00-0-0-0-0--3---3--33-3-3-3-3-------|
|--0---0--00-0-0-0-0--3---3--33-3-3-3-3-------|

Chorus cont.
|--3---3--33-3-3-3-3--5-5-5-5-5x--------------|
|--3---3--33-3-3-3-3--5-5-5-5-5x--------------|
|--4---4--44-4-4-4-4--7-7-7-7-7x--------------|
|--5---5--55-5-5-5-5--7-7-7-7-7x--------------|
|--5---5--55-5-5-5-5--5-5-5-5-5x--------------|
|--3---3--33-3-3-3-3--5-5-5-5-5x--------------|

Intro 2
|--3--33---3---3-3-3--|
|--3--33---3---3-3-3--|
|--5--55---4---4-4-4--|
|--5--55---5---5-5-5--| x2
|--3--33---5---5-5-5--|
|--3--33---3---3-3-3--|

Verse
|--3--33---3---3-3-3--|
|--5--55---3---3-3-3--|
|--5--55---4---4-4-4--|
|--5--55---5---5-5-5--| x8
|--3--33---5---5-5-5--|
|--3--33---3---3-3-3--|

Prechorus
|--0-0x---3-3x---3-3x---5----5-5-55-----------|
|--0-0x---5-5x---3-3x---5----5-5-55-----------|
|--0-0x---5-5x---4-4x---7----7-7-77-----------|
|--2-2x---5-5x---5-5x---7----7-7-77-----------|
|--2-2x---3-3x---5-5x---5----5-5-55-----------|
|--0-0x---3-3x---3-3x---5----5-5-55-----------|

Pre-chorus cont.
|--0---0-0--3-3-3-3--5-5-5-5x-----------------|
|--0---0-0--5-5-5-5--5-5-5-5x-----------------|
|--0---0-0--5-5-5-5--7-7-7-7x-----------------|
|--2---2-2--5-5-5-5--7-7-7-7x-----------------|
|--2---2-2--3-3-3-3--5-5-5-5x-----------------|
|--0---0-0--3-3-3-3--5-5-5-5x-----------------|

Chorus
Chorus
|--0---0--00-0-0-0-0--3---3--33-3-3-3-3-------| |
|--1---1--11-1-1-1-1--5---5--55-5-5-5-5-------| |
|--2---2--22-2-2-2-2--5---5--55-5-5-5-5-------| |
|--2---2--22-2-2-2-2--5---5--55-5-5-5-5-------| |
|--0---0--00-0-0-0-0--3---3--33-3-3-3-3-------| |
|--0---0--00-0-0-0-0--3---3--33-3-3-3-3-------| |
                        |--x2
Chorus cont.                  |
|--3---3--33-3-3-3-3--5---5--55-5-5-5-5-------| |
|--3---3--33-3-3-3-3--5---5--55-5-5-5-5-------| |
|--4---4--44-4-4-4-4--7---7--77-7-7-7-7-------| |
|--5---5--55-5-5-5-5--7---7--77-7-7-7-7-------| |
|--5---5--55-5-5-5-5--5---5--55-5-5-5-5-------| |
|--3---3--33-3-3-3-3--5---5--55-5-5-5-5-------| |
                        /
Chorus cont.
|--0---0--00-0-0-0-0--3---3--33-3-3-3-3-------|
|--1---1--11-1-1-1-1--5---5--55-5-5-5-5-------|
|--2---2--22-2-2-2-2--5---5--55-5-5-5-5-------|
|--2---2--22-2-2-2-2--5---5--55-5-5-5-5-------|
|--0---0--00-0-0-0-0--3---3--33-3-3-3-3-------|
|--0---0--00-0-0-0-0--3---3--33-3-3-3-3-------|

Chorus cont.
|--3---3--33-3-3-3-3--5-5-5-5-5x--------------|
|--3---3--33-3-3-3-3--5-5-5-5-5x--------------|
|--4---4--44-4-4-4-4--7-7-7-7-7x--------------|
|--5---5--55-5-5-5-5--7-7-7-7-7x--------------|
|--5---5--55-5-5-5-5--5-5-5-5-5x--------------|
|--3---3--33-3-3-3-3--5-5-5-5-5x--------------|


Bridge
|-----3--3-----5--5-----8---8---8-------------| |
|----5--5-5---7--7-7---8--8---8---8-----------| |
|---------------------------------------------| |
|--2--------0---------------------------------| |
|---------------------------------------------| |
|--------------------8------------------------| |
                        |--x5
Bridge cont.                  |
|-----3--3-----5--5-----12--10---8------------| |
|----5--5-5---7--7-7---8--8---8---8-----------| |
|--------------------------9---9---9----------| |
|--2--------0---------------------------------| |
|---------------------------------------------| |
|--------------------8------------------------| |
                    _______/
Chorus
|--0---0--00-0-0-0-0--3---3--33-3-3-3-3-------| |
|--1---1--11-1-1-1-1--5---5--55-5-5-5-5-------| |
|--2---2--22-2-2-2-2--5---5--55-5-5-5-5-------| |
|--2---2--22-2-2-2-2--5---5--55-5-5-5-5-------| |
|--0---0--00-0-0-0-0--3---3--33-3-3-3-3-------| |
|--0---0--00-0-0-0-0--3---3--33-3-3-3-3-------| |
                        |--x2
Chorus cont.                  |
|--3---3--33-3-3-3-3--5---5--55-5-5-5-5-------| |
|--3---3--33-3-3-3-3--5---5--55-5-5-5-5-------| |
|--4---4--44-4-4-4-4--7---7--77-7-7-7-7-------| |
|--5---5--55-5-5-5-5--7---7--77-7-7-7-7-------| |
|--5---5--55-5-5-5-5--5---5--55-5-5-5-5-------| |
|--3---3--33-3-3-3-3--5---5--55-5-5-5-5-------| |
                        /
Chorus cont.
|--0---0--00-0-0-0-0--3---3--33-3-3-3-3-------|
|--1---1--11-1-1-1-1--5---5--55-5-5-5-5-------|
|--2---2--22-2-2-2-2--5---5--55-5-5-5-5-------|
|--2---2--22-2-2-2-2--5---5--55-5-5-5-5-------|
|--0---0--00-0-0-0-0--3---3--33-3-3-3-3-------|
|--0---0--00-0-0-0-0--3---3--33-3-3-3-3-------|

Chorus cont.
|--3---3--33-3-3-3-3--3---3--33-3-3-3-3-------|
|--3---3--33-3-3-3-3--5---5--55-5-5-5-5-------|
|--4---4--44-4-4-4-4--5---5--55-5-5-5-5-------|
|--5---5--55-5-5-5-5--5---5--55-5-5-5-5-------|
|--5---5--55-5-5-5-5--3---3--33-3-3-3-3-------|
|--3---3--33-3-3-3-3--3---3--33-3-3-3-3-------|

Chorus cont.
|--3---3--33-3-3-3-3--3---3--33-3-3-3-3-------|
|--3---3--33-3-3-3-3--5---5--55-5-5-5-5-------|
|--4---4--44-4-4-4-4--5---5--55-5-5-5-5-------|
|--5---5--55-5-5-5-5--5---5--55-5-5-5-5-------|
|--5---5--55-5-5-5-5--3---3--33-3-3-3-3-------|
|--3---3--33-3-3-3-3--3---3--33-3-3-3-3-------|

Chorus cont.
|--3---3--33-3-3-3-3--3---3--33-3-3-3-3-------|
|--3---3--33-3-3-3-3--5---5--55-5-5-5-5-------|
|--4---4--44-4-4-4-4--5---5--55-5-5-5-5-------|
|--5---5--55-5-5-5-5--5---5--55-5-5-5-5-------|
|--5---5--55-5-5-5-5--3---3--33-3-3-3-3-------|
|--3---3--33-3-3-3-3--3---3--33-3-3-3-3-------|

Chorus cont.
|--3---3--33-3-3-3-3~~~~~|
|--3---3--33-3-3-3-3~~~~~|
|--4---4--44-4-4-4-4~~~~~|
|--5---5--55-5-5-5-5~~~~~|
|--5---5--55-5-5-5-5~~~~~|
|--3---3--33-3-3-3-3~~~~~|

Other versions of Echo Park

Alternative guitar chords and tabs for Echo Park by Cabrera Ryan

Find guitar tabs and chords

A B C D E F G H I J K L M N O P Q R S T U V W X Y Z #