40 Kinds Of Sadness Tab by Cabrera Ryan

40 Kinds Of Sadness Tab tab by Cabrera Ryan

Guitar tabs

This song is great...i mean great...to pick up the ladies
so if you learn it, learn it well because it is not hard :)

Artist Ryan Cabrera
Song  40 Kinds of Sadness
Album Take it All Away


Verse

--------------------------------------------------------------|
--------------------------------------------------------------|
------------------9-9------7-7------9-9-----------------------|
-----4-4----------9-9------7-7------9-9-----------------------|
-----4-4----------7-7------5-5------7-7-----------------------|
-----2-2------------------------------------------------------|

Chorus

--------------------------------------------------------------|
--------------------------------------------------------------|
------------------9-9---------------7-7-----------------------|
---7--7-----------9-9-----4-4-------7-7-----------------------|
---7--7-----------7-7-----4-4-------5-5-----------------------|
---5--5-------------------2-2---------------------------------|


that is simple go play and enjoy

Find guitar tabs and chords

A B C D E F G H I J K L M N O P Q R S T U V W X Y Z #