Log in

One click and you are in

Login with Facebook Login with Google

Why sign up and log in

Guitar Tabs Explorer
Rx Bandits guitar tabs for March of the caterpillar

Guitar tabs with lyrics

-----------------------------------------------------------------------------
	            MARCH OF THE CATERPILLAR - Rx Bandits
-----------------------------------------------------------------------------
Tabbed by: tobias19
Tuning: standard


Intro (x3)
  rhythm guitar (fingerpicked)               lead guitar
e|--------------------              e|--------------------------------------|
B|-7h8p7-7-----5------              B|--------------------------------------|
G|---------9-----7--7-  x3          G|-7/9-9/11-11/12--7/9-9/11-12-12/14\10-|
D|--------------------              D|--------------------------------------|
A|-7-----7-----5----5-              A|-5/7-7/9---9/10--5/7-7/9--10-10/12\10-|
E|--------------------              E|--------------------------------------|

e|------------3---2-                e|------------------10---7---|
B|-fingerpick-3---4-                B|------------------12---7---|
G|--these-----6---2-                G|-7/9-9/11-11\12---12---8---|
D|--chords----5---4-                D|------------------12---7---|
A|------------5---2-                A|-5/7-7/9---9\10---10---9---|
E|------------3-----                E|-----------------------7---|


Verse
rhythm guitar   (both parts palm muted)   lead guitar
e|--------------                      e|---------------|
B|--------------                      B|---------------|
G|--------------  x3                  G|---4--4--------|  x3
D|---5--5---44--                      D|--------5544---|
A|-7--7--77---5-                      A|-7--7--------5-|
E|--------------                      E|---------------|

e|-----3---2-                         e|-10--7--|
B|-----3---4-                         B|-12--7--|
G|-----6---2-                         G|-12--8--|
D|-----5---4-                         D|-12--7--|
A|-----5---2-                         A|-10--9--|
E|-----3-----                         E|-----7--|

Chorus
rhythm guitar              lead guitar (play every other time--2nd, 4th, ect)
e|---------------------               e|---------------|
B|---------------------               B|---------------|
G|---------------------               G|---4-242-----2-|
D|---5-------4---------               D|-2------5-45---|
A|---------5-------5---               A|---------------|
E|-0---5-7-----5-7-----               E|---------------|

Post Chorus
(both guitars unison)
e|---------------------------|
B|---------------------------|
G|-----------2-------1-1-----| x3
D|---4-------------2-----2---|
A|-----2h3h4---2h4---------4-|
E|-2-------------------------|

e|---------------------|
B|---------------------|
G|-----44--------66----|
D|---5----5----7----7--|
A|---------------------|
E|-3---------5---------|

Post Chorus pt2
Rhythm
e|-----------12--|
B|-----------12--|
G|---fast----12--|
D|-strumming-14--|
A|-----------14--|
E|-----------12--|

Order:

Intro  x3

Verse  x2

Intro  x2

Verse  x2

Chorus x12
Post Chorus x1

Chorus x8
Post Chorus x1

Intro  x2

Verse  x2.5

| /  slide up
| \  slide down
| h  hammer-on
| p  pull-off
| ~  vibrato
| +  harmonic
| x  Mute note

Almost there ...

Sign in to get your own page with links to favourite songs and more. You are just one click away...

Login with Facebook Login with Google