Log in

One click and you are in

Login with Facebook Login with Google

Why sign up and log in

Guitar Tabs Explorer
Rusty tabs for Wake me

Guitar tabs

ARTIST - Rusty
SONG   - Wake Me
ALBUM  - Fluke

TUNING - Standard

         BEGGINING - Play Once (with chorus or phaser pedal)
E----------------------------------------|
B---------------------------1---------1--|
G-------2--2-----------------------------|
D---0---4--4----2--0-----0-------0-------|
A---------------------0------------------|
E----------------------------------------|
         VERSES - Play Twice
E--------------------------------------------------------------------|
B-----------------------1---------1------------1---------1---------1-|
G---2--2-------------------------------------------------------------|
D---4--4----2--0-----0-------0------------0---------0---------0------|
A-----------------0--------------------------------------------------|
E--------------------------------------------------------------------|
                           It used to be kind of fun ...

 |-------------------------------------------------------------------|
 |-------------------1---------1-------------------------------------|
 |-2--2--------------------------------3---------3-------------------|
 |-4--4---2--0-----0-------0-----------------------------------------|
 |--------------0-------------------3-------3------------------------|
 |----------------------------------------------------7--5---3-----3-|
                                   The hole                   is tired
                                   The hole                   is tired

       PRE-CHORUS - Play Once Before Chorus
E---------------------------------------------|
B----------------------1---------1------------|
G--2--2---------------------------------------|
D--4--4----2--0-----0-------0-----------------|
A----------------0----------------------------|
E---------------------------------------------|
                 so tired

        CHORUS (with distortion)
E-------------------------------------------------------------------|
B-------------------------------------------------------------------|
G--9-9-9-9-9-9-9-9--7-7-7-7-7-7-7-7---------------------------------|
D--9-9-9-9-9-9-9-9--7-7-7-7-7-7-7-7---------------------------------|
A--7-7-7-7-7-7-7-7--5-5-5-5-5-5-5-5-----7\9----7\9------7\9----7\9--|
E-------------------------------------------------------------------|
           A chord diagramE5E5              A chord diagramD5D5
And if I pull away ...

 |---------------------------------------------------------|
 |---------------------------------------------------------|
 |---9-9-9-9-9-9-9-9--7-7-7-7-7-7-7-7-7-7-7-7-7-7-7-7------|
 |---9-9-9-9-9-9-9-9--7-7-7-7-7-7-7-7-7-7-7-7-7-7-7-7------|
 |---7-7-7-7-7-7-7-7--5-5-5-5-5-5-5-5-5-5-5-5-5-5-5-5------|
 |---------------------------------------------------------|
            A chord diagramE5E5                        A chord diagramD5D5
 And if I fall asleep will you wake me ...



By: Jay Bilyk
    mdbilyk@eidnet.org

Almost there ...

Sign in to get your own page with links to favourite songs and more. You are just one click away...

Login with Facebook Login with Google