Log in

One click and you are in

Login with Facebook Login with Google

Why sign up and log in

Guitar Tabs Explorer
Root Rusted tabs for Infinite tamboura

Guitar tabs

From jwjenks@ix.netcom.com Thu May  8 17:31:21 1997

TAB: "Infinite Tamboura" by Rusted Root

Album: WHEN I WOKE
Track #: 12
transcriber: jmk269@postoffice.ptd.net (joseph kozak)
Submitted By: Jeff Jenks(jwjenks@ix.netcom.com)

Infinite Tamboura
 (tamboura arranged for guitar)

    A chord diagramG+G

E----------------------------------------------------------------
B----------------------------------------------------------------
G---------------------0---------------------------0--------------
D-----------------5--------------------------5-------------------
A------------5--------------------------5------------------------
E---3---------------------------3--------------------------------


Infinite Tamboura
 (tamboura arranged for guitar)

    A chord diagramG+G

E----------------------------------------------------------------
B----------------------------------------------------------------
G---------------------0---------------------------0--------------
D-----------------5--------------------------5-------------------
A------------5--------------------------5------------------------
E---3---------------------------3--------------------------------


Enjoy

Almost there ...

Sign in to get your own page with links to favourite songs and more. You are just one click away...

Login with Facebook Login with Google