Log in

One click and you are in

Login with Facebook Login with Google

Why sign up and log in

Guitar Tabs Explorer
Acosta Russell tabs for Dont fade away

Guitar tabs with lyrics

Don't Fade Away By: Acosta Russell
Dedicated To:Phia My Inspiration when I listen to this Song
to tabulate it Yebah!!!!!

You must carefully listen to the song before you read this tab,you know
this tab is worthwhile useless once you heard this song, it's quite sad
bud the meaning gives a wonderful warmth!

Please enjoy and Always smile!!!
Patience Please...

Intro:

A chord diagramC majorC		      A chord diagramG+G	  A chord diagramD MajorD       A chord diagramA minorAm        A chord diagramG+G
---------------0------3---2-----------------------3------3-------------------
-0-1-0-----1-----1------3---3--------0-1-3----------3----3--1----------------
-------2-0---0-----0----------2----2--------3---------4--4--0----0-----------
--------------------------0-----0-------------5-------------2--2---2---------
---------3-----3--------------------------------5----------------------------
----------------------3---------------------4-----3------3--0----------------

A chord diagramA minorAm
-----------------1-----1-1-0-----------------------3-----3---3p2-------------
-0-1-0-----1-------1-----1-1-----1h3-3-----0-1-------1-----1-----3-----------
-------0h2---2-------2---2-0-0---------0-------2-------2-----------2---------
---------------2---------------2---------0-------2-----------0-------0-------
-----------0-----0-------0-3---------2-------0-----0-------------------------
-----------------------------------------------------------------------------


Verse 1:

A chord diagramC majorC		      A chord diagramG+G	  A chord diagramD MajorD       A chord diagramA minorAm        A chord diagramG+G
---------------0------3---2-----------------------3------3-------------------
-0-1-0-----1-----1------3---3--------0-1-3----------3----3--1----------------
-------2-0---0-----0----------2----2--------3---------4--4--0----0-----------
--------------------------0-----0-------------5-------------2--2---2---------
---------3-----3--------------------------------5----------------------------
----------------------3---------------------4-----3------3--0----------------

A chord diagramA minorAm
-----------------1-----1-1-0-----------------------3-----3---3p2-------------
-0-1-0-----1-------1-----1-1-----1h3-3-----0-1-------1-----1-----3-----------
-------0h2---2-------2---2-0-0---------0-------2-------2-----------2---------
---------------2---------------2---------0-------2-----------0-------0-------
-----------0-----0-------0-3---------2-------0-----0-------------------------
-----------------------------------------------------------------------------

Chorus:

A chord diagramC majorC
-------------0--2-----2-----------------2--2-----2-----2----------0-----3----
-1-----1----------3-----3---3-----3----------3-----3-----3--1-------1--------
---0-----0----------2-----2---4-----4----------2-----2--------2-------2------
-----2-----2----0-----0---------4-----4----0-----0-----0--------2------------
-3-----3-----3--------------2-----2-----2-------------------0-----0----------
-----------------------------------------------------------------------------


-0--0------------------------3---3p2-----2--3--------------------------------
-1--1------1h3-3-----0-1-------1-----3---3--3--------------------------------
-2--0--1---------0-------2-------------2-2-----------------------------------
---------2---------0-------2-----0-------0-----------------------------------
-0--3----------2-------0-----0-----------------------------------------------
-----------------------------------------------------------------------------

Next Verse 2 then:


Bridge:.

------------------------------------------------------------2-----2-----2h3-----
-1-----1-----1----1-1------1-----1-----1----3-----3-----3-----3-----3-------3---
---2-----2-----2--2-0--------0-----0-----0----0-----0-----0-----2-----2---------
-----2-----2------2-2-2--------2-----2----------0-----0-----0-----0-------------
-0-----0----------0-3---3--3-----3-----3----------------------------------------
--------------------------------------------3-----0-----------------------------


------------------------------------------------------------2-----2-----2h3------
-1-----1-----1----1-1------1-----1-----1----1-----1-----1-----3-----3-------3----
---2-----2-----2--2-0--------0-----0-----0----2-----2-----2-----2-----2-------2--
-----2-----2------2-2-2--------2-----2----------2-----2-----0-----0-------------0
-0-----0----------0-3---3--3-----3-----3----0-----0------------------------------
---------------------------------------------------------------------------------

Last part The Ending...

A chord diagramC majorC		      A chord diagramG+G	  A chord diagramD MajorD       A chord diagramA minorAm        A chord diagramG+G
---------------0------3---2-----------------------3------3-------------------
-0-1-0-----1-----1------3---3--------0-1-3----------3----3--1----------------
-------2-0---0-----0----------2----2--------3---------4--4--0----0-----------
--------------------------0-----0-------------5-------------2--2---2---------
---------3-----3--------------------------------5----------------------------
----------------------3---------------------4-----3------3--0----------------


A chord diagramA minorAm				       A chord diagramC majorC  A chord diagramD MajorD  A chord diagramG+G
-----------------1-----1-1-0-----------0--2--3
-0-1-0-----1-------1-----1-1-----1h3---1--3--3
-------0h2---2-------2---2-0-0---------0--2--0
---------------2---------------2-------2--0--0
-----------0-----0-------0-3-----------3-----2
---------------------------------------------3


I hope You Enjoy reading and learning this tab,for questions and comments please
don't hesitate to e-mail me at Jfm_788@techemail.com.  I

Almost there ...

Sign in to get your own page with links to favourite songs and more. You are just one click away...

Login with Facebook Login with Google