Search tabs and chords

Search for song, artist or band

Log in

One click and you are in

Login with Facebook Login with Google

Why sign up and log in

Guitar Tabs Explorer
Russ guitar tabs for Missin you crazy acoustic

Intro

Tuning: Standard (E A D G B E)



Intro:

Guitar 1

e|---------------------------------------------------------------------------|
B|--------6---6--------------1--------------3---------------1----------------|
G|----7----------------2--------2--------3------3------2-------2-------------|
D|------8-------8---------2-------2--------5------5-------3-------3----------|
A|----------8---------0-------0----------------5--------------3--------------|
E|--6----------------------------------3--------------1----------------------|

Guitar 2

e|--6----6-------------------------------------------------------------------|
B|-------------------------------------/10-6-6-6-----------------------------|
G|----------5h7p5------------------------------------------------------------|
D|---------------------------------------------------------------------------|
A|----------------------0-3-----------------------------0-3------------------|
E|--------------------1-------------------------------1----------------------|



************************************

| /  Slide up
| h  Hammer-on
| p  Pull-off

************************************

Other versions of Missin You Crazy Acoustic

Missin you crazyChords

Almost there ...

Sign in to get your own page with links to favourite songs and more. You are just one click away...

Login with Facebook Login with Google