GuitarTabsExplorer icon
GuitarTabsExplorer icon

Log in

Songbook

  • Log in to add and see bookmarks

Last visited songs

  • No songs visited yet...
Driven by Rush

Bass tabs

Rush - Driven
[email protected] (Judy Letostak)
Metal Edge BBS (619)423-4970
1:202/1109 (FidoNet)
http://www.netcom.com/~letostak/musicshp.html

Drop D Tuning 4=D

Intro (Riff A)

---9--11--9-11--9--9---9--11--12--12--12--11----
--10--12-10-12-10-10--10--12--13--13--13--12----
---0-------------------0------------------------
------------------------------------------------

Verses
3x=======================================  2nd 3rd time
---9--11--9-11--9--9---9--11--12--12--12-----11-
--10--12-10-12-10-10--10--12--13--13--13-----12-
---0-------------------0------------------------
------------------------------------------------

      Chorus
------------------------------------------------
------------------------------------------------
------------------------------------------------
--0----2---3---3--3--5--3---5b(7)--7---7---7--7-
------------------------------------------------
------------------------------------------------
------------------------------------------------
-5b(7)--7---3---3---3-5--3--2-------------------


------------------------------------------------
-----0-----2------------------------------------
------------------------------------------------
--0-----2-----3--3---3--5--3--5b(7)--7--7---7--7


------------------------------------------------
------------------------------------------------
------------------------------------------------
-5b(7)--7---3---3--3--5--3--2-------------------

Ending 1

------------------------------------------------
------------------------------------------------
------------------------------------------------
-0---2-----3-----5-----7-----7-----7\-----------

Ending 2

-------------------------------------------5----
------0--2p0--------------------------5--7---7\-
---------------------------------5--7-----------
--0-----------2----3----5-----7-----------------

Interlude
 2x=========
--5--------7-----5--------5----5--------7-------
-----0--0-----------0--0----------0--0-----0--0-
--3--------5-----3--------3----3--------5-------
-----0--0-----------0--0----------0--0-----0--0-
--8-----8-----8-----7--------
-----0-----0-----0-----0-----repeat whole thing
--6-----6-----6-----5--------  3x
-----0-----0-----0-----0-----


------------------------------------------------
------------------------------------------------
---5--------------3---------5-------3-3-3-3-3-3-
--------5----7-------3--2--------5--------------


-----------------------
-----------------------
-3-3-3-3-3-3-3-3-3-3---
-----------------------

Bridge

------------------------------------------------
------------------------------------------------
5----5---------------------------3---------5--5-
---------5--5--5-----5/7---7--7-----3---2-------


------------------------------------------------
------------------------------------------------
-----------3--3---3--2--3--2/---5--5--5---------
--5--5--5--------------------------------5--5--5


------------------------------------------------
------------------------------------------------
-------------3--------5--5-----------3---3------
--5/7--7--7-----3--2--------5--5--5-------------


------------------------------------------------
------------------------------------------------
-3--3---3--3--3--3----3/5--5--5-----------------
---------------------------------5---3b(5)--5---


------------------------------------------------
------------------------------------------------
------------3--------5--5-----------3--3--3--3--
-5/7--7--7-----3--2--------5--5--5--------------


------------------------------------------------
------------------------------------------------
-3--3--3--3---3/5--5--5-------------------------
-------------------------5--3b(5)--5---5/7--7---

------------------------------------------------
------------------------------------------------
----3--------5--5-----------3---3---2--3--8\----
-7-----3--2--------5--5--5----------------------


------------------------------------------------
------------------------------------------------
--8--8--8--------------------------6------------
-----------8--8--8---8/10--10--10-----6---5-----


------------------------------------------------
------------------------------------------------
--8--8--8-----------6--x--6--6--5--6--5--8--8--8
-----------8--7--8------------------------------


------------------------------------------------
------------------------------------------------
-------------------------6--------8--8--8-------
--8--8--8--8/10--10--10-----6--5-----------8--8-


------------------------------------------------
------------------------------------------------
----6--x--6--6--5--6--12\---5--5--5-------------
-8-----------------------------------5--5--5----


------------------------------------------------
------------------------------------------------
-------------3--------5--5--5-----------3--3----
--5/7--7--7-----3--2-----------5--5--5----------


------------------------------------------------
------------------------------------------------
-3--2---2--3--2--3---3/5---5--5-----------------
---------------------------------5--5--5--------


------------------------------------------------
------------------------------------------------
-------------3---------5--5--5-----------3--3--3
--5/7--7--7-----3--2------------5--5--5---------


------------------------------------------------
------------------------------------------------
--3--2--2--2------------------------------------
--------------3--5--7--7---7-7--5--7--3--3------


------------------------------------------------
------------------------------------------------
------------------------------------------------
--5--3--2--0--0--0--2--2--2--3--3--3--5--5--5---


-------------------5----------------------------
-------------5--7-----7\------------------------
-------5--7-------------------------------------
--5/7-------------------------------------------

Play Riff A 1x


------------------------------------------------
-------------------------------7--------7-------
------------------------------------------------
--3--3---3--5---5--7--7--7--7-----7--7-----7\3--


------------------------------------------------
----------------------0--2p0--------------------
------------------------------------------------
--3---3--5--3--2--0-----------2--2--2--3--3--3--


------------------------------------------------
------------------------------------------------
-------------------7--------7-----7\------------
-5--3--5--7--7--7-----7--7-----7----------------


------------------------------------------------
----------------------------0-------------------
------------------------------------------------
-3---3---3--5---3--2--0--0-----0--0--2--0--0--2-


------------------------------------------------
------------------------------------------------
---------------------------------7-----7/8\7--5-
--3----3----3--5--3--5----7---7-----7-----------


------------------------------------------------
-----------------------------------0--2p0-------
--7\--------------------------------------------
-------3---3---3--5--3--2----0--0-----------2---


------------------------------------------------
------------------------------------------7-----
------------------------------------------------
-0--0--2---3---3---3--5--3--5----7--7--7-----7--7


------------------------------------------------
--5-----7-----5/7-------------------------------
------------------------------------------------
-----7-----7-------3---3---3--5/7\5--3--2\------


------------------------------------------------
--------0--0--------2------------3--3-----5--5--
------------------------------------------------
--0--0--------2--2-----2--3---3--------5-------5/


----------------12-14\--------------------------
-------10-12/14---------------------------------
-10-12------------------------------------------
------------------------------------------------

Outro

------------------------------------------------
------------------------------------------------
-3-----5-----3-----5-----3---3---3-----5-----6--
---0-0---0-0---0-0---0-0---0---0---0-0---0-0---0


----------------
----------------repeat
--6---6---5-----
----0---0---0---


Metal Edge BBS (619)423-4970 (San Diego, CA USA)
Over 10,000 Guitar Tabs, pictures, construction docs, lessons...
interviews, sound files, lyrics, programs.
Riot Member and Distro, Warlock WHQ MetalNet WHQ
http://www.netcom.com/~letostak/musicshp.html
===========================================================
h = hammeron             ps = pick scrape
p = pulloff              % = repeat phrase
~ = vibrato              [email protected]
b = bend               + natural harmonic
/\ = Slide
* = Artificial Harmonic
x = ghost note
tr = trill
===========================================================


Shred's NOT Dead!!!
[email protected] (Judy Letostak)
http://www.netcom.com/~letostak/musicshp.html
Metal Edge BBS (619)423-4970 for over 10,000 guitar/bass tabs
lessons, lyrics, sounds, pix, players, viewers...
ask me for a music product list.

Other versions of Driven

Alternative guitar chords and tabs for Driven by Rush

VersionType
Driven liveBass tabs

[ Privacy | About us ]

Welcome to the guitar community

Why join and log in?
- Get songbook with favourite songs
- Get custom made front page
- Submit chords and tabs
- Submit guitar-cover videos
- Get a lot of thumbs up for your work

Songbook

Last visited songs

Site
Home
Search
Community
Submit chords

Video

No video for this page. Check out how you can submit guitar-cover videos here

Search tabs and chords

Browse by artist

A B C D E F G H I J K L M N O P Q R S T U V W X Y Z #


Menu

Search

Video

Bookmark

Login