GuitarTabsExplorer icon
GuitarTabsExplorer icon

Log in

Songbook

  • Log in to add and see bookmarks

Last visited songs

  • No songs visited yet...
Different Strings by Rush

Tabs

I know a version of this song already exists, but my version is more
accurate and easier to play.

              Different Strings
                 by Rush

Intro:
------

 Riff1: 2x
 |------------------|-0----------------|
3|-1--------3-------|------------------|
 |-------0--------0-|------------------|
 |----2--------4----|------------------|
4|-0--------0-------|-0----------------|
 |------------------|------------------|

 Riff2:
 |----------0-------------|----------0-------------|
4|-------------0----------|-------------0----------|
 |-------5--------------5-|-------5--------------5-|
 |----7--------------7----|----7--------------7----|
4|-0--------------7-------|-5--------------5-------|
 |------------------------|------------------------|

 |------------------------|----------0-------------|
 |----------0-------------|-------------0----------|
 |-------0----------------|-------5--------------5-|
 |----0-----------0-----0-|----7--------------7----|
 |------------------------|-5--------------5-------|
 |-8-----------7-----8----|------------------------|

                       who's..
Verse 1:
--------

 Riff2:
  who's come to slay the dragon....

 Riff2:
  making arrows out of ....

 Riff3:
  Chord diagramBm11Bm11           Chord diagramFF
 |----------0-------------|-1--------1-------------|
4|-2--------------2-------|----1-----------1-------|
 |-------2-----------2----|-------------------2----|
 |----0-------------------|-------3----------------|
4|-2----------------------|-3----------------------|
 |------------------------|------------------------|
  Too much ....

  Chord diagramBm11Bm11           Chord diagramFF      Chord diagramG+G
 |----------0-------------|-1--------1--3--------3-|
 |-2--------------2-------|----1-----------3-------|
 |-------2-----------2----|-------2-----------4----|
 |----0-------------------|------------------------|
 |-2----------------------|-3-----------5----------|
 |------------------------|------------------------|
  Too much con-   tra-  ...-

  Chord diagramA augmentedA
 |-5----------------------|------------------------|
 |-5--------5-------------|-------5----------------|
 |-6--------------------6-|----------------6-------|
 |----------------7-------|-------------7----------|
 |-7----------------------|----7-------------------|
 |------------------------|------------------------|
      (softly...)
  fusion

 Riff3:
  Peel away the ....
Chorus:
-------

  Chord diagramC majorC            Chord diagramE MajorE
 |------------------------|----------0-------------|
4|-1--------1--1----------|-------------0----------|
 |-------0--------------0-|-------1--------------1-|
 |----2--------------2----|----2--------------2----|
4|-3--------------3-------|-2--------------2-------|
 |------------------------|------------------------|
  All  there really    is....

  Chord diagramA minorAm                         Chord diagramFF
 |----------0----------| |-3-----0----------------| |------------------|
7|-------------1-------|4|-------------3p-1-------|3|-1--------1-------|
 |-------2-------------| |-------------------2----| |----2--------2----|
 |----2--------------2-| |------------------------| |-------3--------3-|
8|-0--------------0----|4|------------------------|4|-3--------3-------|
 |---------------------| |------------------------| |------------------|
 two of us,              and ....


________________________________________________________________________
 |1.
 | Chord diagramG+G          Chord diagramG+G   Chord diagramA augmentedA
 |------------------|
|------------------------|------------------------|
3|-3--------3x------|4|-3-----5--------5x------|-5--------5x-------5----|
 |-4--------4x------|
|-4-----6--------6x------|-6--------6x-------6----|
 |-5--------5x------|
|-5-----7--------7x------|-7--------7x-------7----|
4|-5--------5x------|4|-5-----7--------7x------|-7--------7x-------7----|
 |------------------|
|------------------------|------------------------|
  why   we've ....
 _______________________________________________
 |2.
 | Chord diagramE MajorE          Chord diagramD MajorD
 |------------------| |------------------------|
3|-0--------0-------|4|------------------------|
 |-1--------1-------| |-2----------------------|
 |-2--------2-------| |------------------------|
4|-2--------2-------|4|------------------------|
 |------------------| |------------------------|
  in    ....

Bridge:
-------

 Riff1: 2x

 Riff2: 4x

Verse 2:
--------

 Riff2:
  What happened to our innocense....?

 Riff2:
  Along with our ....

 Riff3:
  Different eyes see ....

 Riff3:
  But there .....

Repeat chorus
-------------

Joost de Moel
[email protected]

Other versions of Different Strings

Alternative guitar chords and tabs for Different Strings by Rush

VersionType
Different stringsChords

[ Privacy | About us ]

Welcome to the guitar community

Why join and log in?
- Get songbook with favourite songs
- Get custom made front page
- Submit chords and tabs
- Submit guitar-cover videos
- Get a lot of thumbs up for your work

Songbook

Last visited songs

Site
Home
Search
Community
Submit chords

Video

No video for this page. Check out how you can submit guitar-cover videos here

Search tabs and chords

Browse by artist

A B C D E F G H I J K L M N O P Q R S T U V W X Y Z #


Menu

Search

Video

Bookmark

Login