GuitarTabsExplorer icon
GuitarTabsExplorer icon

Log in

Songbook

  • Log in to add and see bookmarks

Last visited songs

  • No songs visited yet...
Clockwork Angels by Rush

Bass tabs

-------------------------------------------------------------------------------
              Clockwork Angels - Rush
-------------------------------------------------------------------------------

Tabbed by: Russell Pagden
E-mail: [email protected]

Tuning: Standard

[Intro]

G|------------------------------------------------------------------------|
D|-------------------2p0---2p0--------------------------------------------|
A|-000000000000000000---000----2--------000000000000444444444444-2--------|
E|------------------------------------------------------------------------|

G|-----------------------------------------------------------------------|
D|-----------------------------------------------------------------------|
A|-------------222222222222-0----0----------------222222222222-0----0----|
E|-333333333333-----------------------333333333333-----------------------|

G|----------------------------------------------------------------------------------------------------|
D|-----------------------------------3----------------------------------------------------------------|
A|-444444-0-2-4-2222222-0-2-444444-6---2222222-0-2--------0-2-0-000000-2-2-0--------0-2/-000000-2-4/--|
E|-------------------------------------------------333333--------------------333333-------------------|

[Verse]

G|-----------------------------------------------------------| 2x
D|-0-0-0-0-0-00-0-000-2-2-2-2-2-22-2-222-4-4-4-4-4-44-4-444\-|
A|-----------------------------------------------------------|
E|-----------------------------------------------------------|

G|---------------------|
D|---------------------|
A|-5-5-5-5-5-55-5-555\-|
E|---------------------|

(wait for drumstick clicks to come in again)

G|------------| 8x
D|------------|
A|-222222-0-2-|
E|------------|

G|---------------------------------------------|
D|---------------------------------------------|
A|-333333-1-3-333333-1-3-----------------------|
E|-----------------------333333-3-5-555555-5-7-|

G|------------| 4x
D|------------|
A|-222222-0-2-|
E|------------|

G|---------------------------------------------|
D|---------------------------------------------|
A|-333333-1-3-333333-1-3-----------------------|
E|-----------------------333333-3-5-555555-5-7-|

[Prechorus]

G|----------------------------------------------------------------------------------------------------|
D|-----------------------------------3----------------------------------------------------------------|
A|-444444-0-2-4-2222222-0-2-444444-6---2222222-0-2--------0-2-0-000000-2-2-0--------0-2/-000000-2-4/--|
E|-------------------------------------------------333333--------------------333333-------------------|

[Chorus]

G|---------------------------------------------------| 2x
D|---------------2222222222222-----------------------|
A|-4444444444444---------------222-22-0-2-222-22-0-2-|
E|---------------------------------------------------|

G|-------------------------------------------------------------------------------------------------|
D|-------------------------------------------2-2-2-------------------------------------------------|
A|-------------2-2-2-5-5-5-0-0-0-0-0-0-4-4-4-------------------2-2-2-5-5-5-0-0-0-0-0-0-0-0-0-0-0-0-|
E|-3-3-3-3-3-3-------------------------------------3-3-3-3-3-3-------------------------------------|

G|---------------------------------------------------------------------------|
D|---------------------------------------------------------------------------|
A|-2-------------------------------------------------------------------------|
E|---------------------------------------------------------------------------|

[Verse]

G|-----------------------------------------------------------| 2x
D|-0-0-0-0-0-00-0-000-2-2-2-2-2-22-2-222-4-4-4-4-4-44-4-444\-|
A|-----------------------------------------------------------|
E|-----------------------------------------------------------|

G|-75-75--|
D|---7--7-|
A|--------|
E|--------|

(again, wait for drumstick clicks to come back in)

G|------------| 4x
D|------------|
A|-222222-0-2-|
E|------------|

G|------------------------------------------------|
D|-----------------------------------------779779-|
A|-333333-1-3-333333-1-3--------------------------|
E|-----------------------333333-3-5-555555--------|
                      |  |
                      ------

G|------------|
D|------------|
A|-222222-0-2-|
E|------------|

G|---------------|
D|---------------|
A|-222222-0-5542-|
E|---------------|
      | |
      ----

G|------------|
D|------------|
A|-222222-0-2-|
E|------------|

G|----------|
D|-----22---|
A|-5532--32-|
E|----------|

G|---------------------------------------------|
D|---------------------------------------------|
A|-333333-1-3-333333-1-3-----------------------|
E|-----------------------333333-3-5-555555-5-7-|

[Prechorus]

G|------------------------------------------------------------------------------------------------|
D|---------------------------------3-----------1--------------------------------------------------|
A|-444444-0-2-4-2222222-0-2-4444-6---6-22222-4---4--------2-----------4----------4-5--------4-5-7-|
E|-------------------------------------------------3333-5---5-5555-77---7-5555-7-----5555-7-------|

[Chorus]

G|-------------------------------------------------| 2x
D|--------------222222222222-----------------------|
A|-444444444444--------------222-22-2-2-222-22-2-2-|
E|-------------------------------------------------|

G|-----------------------------------------------------------------------------------------------------|
D|-------------------------------------------2-2-2---------------------------------------------0022----|
A|-------------2-2-2-5-5-5-0-0-0-0-0-0-4-4-4-------------------2-2-2-5-5-5-0-0-0-0-0-0-0-0-0024----420-|
E|-3-3-3-3-3-3-------------------------------------3-3-3-3-3-3-----------------------------------------|

G|--------------------------------------------------------------------------------|
D|--------------------------------------------------------------------------------|
A|-2------------------------------------------------------------------------------|
E|--------------------------------------------------------------------------7\----|

[Bridge/Solo]

G|------------| 4x
D|------------|
A|-222222-0-2-|
E|------------|

G|---------------------------------------------|
D|---------------------------------------------|
A|-333333-1-3-333333-1-3-----------------------|
E|-----------------------333333-3-5-555555-9-7-|

G|------------| 3x
D|------------|
A|-222222-0-2-|
E|------------|

G|---------------|
D|---------------|
A|-222222-0-2222-|
E|---------------|

G|-----------------------------------------------|
D|-----------------------------------------------|
A|-333333-1-3-333333-1-3-------------------7-5-7-|
E|-----------------------333333-3-5-555555-------|

G|------------------------------------------------------------------|
D|----------4---------------5---------------4---------------5-7-----|
A|-5-5--5-7---7-5--5-5--5-7---7-5--5-5--5-7---7-5--5-5--5-7-----5---|
E|------------------------------------------------------------------|

G|----------------------------------------------------------------------|
D|-10-9--9-7---------7-5--5-4--------10-9--9-7---------7-5--5-4-----5-7-|
A|-----------10-9-7-----------7-5--------------10-9-7-----------7-5-----|
E|--------------------------------8-------------------------------------|

G|----------------------------------------------------------------|
D|----------4---------------5---------------4---------------5-7---|
A|-5-5--5-7---7-5--5-5--5-7---7-5--5-5--5-7---7-5--5-5--5-7-----5-|
E|----------------------------------------------------------------|

G|----------------------------------------------------------------------|
D|-10-9--9-7---------7-5--5-4--------10-9--9-7---------7-5--5-4-----5-7-|
A|-----------10-9-7-----------7-5--------------10-9-7-----------7-5-----|
E|--------------------------------8-------------------------------------|

[Verse]

G|-----------------------------------------------------------|
D|-0-0-0-0-0-00-0-000-2-2-2-2-2-22-2-222-4-4-4-4-4-44-4-444\-|
A|-----------------------------------------------------------|
E|-----------------------------------------------------------|

G|----------------------------------------------------------------|
D|-0-0-0-0-0-00-0-000-2-2-2-2-2-22-2-2\0/2/-4-4-4-4-4-44-4-442-24-|
A|------------------------------------------------------------4---|
E|----------------------------------------------------------------|

G|-----------------------------------------------------|
D|-0-0-0-0-0-00-0-442-442--------------------44444-2-4-|
A|-------------------4---4-0--------2------------------|
E|-----------------------------------------------------|

[Prechorus]

G|------------------------------------------------------------------------------------------------|
D|---------------------------------3-----------1--------------------------------------------------|
A|-444444-0-2-4-2222222-0-2-4444-6---6-22222-4---4--------2-----------4----------4-5--------4-5-7-|
E|-------------------------------------------------3333-5---5-5555-77---7-5555-7-----5555-7-------|

[Chorus]

G|-------------------------------------------------| 2x
D|--------------222222222222-----------------------|
A|-444444444444--------------222-22-2-2-222-22-2-2-|
E|-------------------------------------------------|

G|-------------------------------------------------------------------------------------------------|
D|-------------------------------------------2-2-2-------------------------------------------2-2-2-|
A|-------------2-2-2-5-5-5-0-0-0-0-0-0-4-4-4-------------------2-2-2-5-5-5-0-0-0-0-0-0-4-4-4-------|
E|-3-3-3-3-3-3-------------------------------------3-3-3-3-3-3-------------------------------------|

G|-------------------------------------------------| 2x
D|--------------222222222222-----------------------|
A|-444444444444--------------222-22-0-2-222-22-0-2-|
E|-------------------------------------------------|

G|-------------------------------------------------------------------------------------------------|
D|-------------------------------------------------------------------------------------------------|
A|-------------2-2-2-5-5-5-0-0-0-0-0-0/7777-77-7-7-------------2-2-2-5-5-5-0-0-0-0-0-0-0-0-0-0-0-0-|
E|-3-3-3-3-3-3-------------------------------------3-3-3-3-3-3-------------------------------------|

G|---------------------------------------------------------------------------|
D|---------------------------------------------------------------------------|
A|-2-------------------------------------------------------------------------|
E|---------------------------------------------------------------------------|

[Outro]

G|------------| 4x
D|------------|
A|-222-22-0-2-|
E|------------|
🏷Legend:

| / slide up
| \ slide down
| h hammer-on
| p pull-off
| ~ vibrato
| + harmonic
| x Mute note

===============================================================================

Extra notes: The notes which I've put dashes underneath in the tab (they almost
look like little faces, hee-hee) denote little fills that one could leave out
with little detriment to the song, as they're usually very fast and hard to hear.
Be sure to listen out for the rhythm as well; there are a few places where it's
not as straightforward as the tab makes it look (e.g. in the intro).

Have fun!

~ Russ

[ Privacy | About us ]

Welcome to the guitar community

Why join and log in?
- Get songbook with favourite songs
- Get custom made front page
- Submit chords and tabs
- Submit guitar-cover videos
- Get a lot of thumbs up for your work

Songbook

Last visited songs

Site
Home
Search
Community
Submit chords

Video

No video for this page. Check out how you can submit guitar-cover videos here

Search tabs and chords

Browse by artist

A B C D E F G H I J K L M N O P Q R S T U V W X Y Z #


Menu

Search

Video

Bookmark

Login