Log in

One click and you are in

Login with Facebook Login with Google

Why sign up and log in

Guitar Tabs Explorer
Runaways chords for Little sister

Guitar chords

LITTLE SISTER
Written by Joan Jett and Inger Asten
Performed by THE RUNAWAYS
Taken from the awesome 1977 album WAITIN' FOR THE NIGHT
Transcribed by Christina Capasso
Email me at GnRsSLASH@hotmail.com

VERSE
E-----------------------------------------------------------------------
B-----------------------------------------------------------------------
G------------------------------------------------------------4--4-------
D--6--6--6--6--6--6--6--6--6--6------4--4--4--4--4--4--4--4--4--4-------
A--6--6--6--6--6--6--6--6--6--6------4--4--4--4--4--4--4--4--2--2-------
E--4--4--4--4--4--4--4--4--4--4------2--2--2--2--2--2--2--2-------------

Little sister on your...
Right in front of the...


CHORUS
E-----------------------------------------------------------------------
B-----------------------------------------------------------------------
G--6---8---6--6--6--6--6--6--6--6--------4------------------------------
D--6---8---6--6--6--6--6--6--6--6------4-4-4------4--6------------------
A--4---6---4--4--4--4--4--4--4--4------4-2-4------4--6------------------
E--------------------------------------2---2------2--4------------------
  16x  16x
       Its too late...
       Its too late...                         We're the kids...

VERSE 2


CHORUS and SOLO


VERSE 3


CHORUS
Refer to the album for complete lyrics :)

Almost there ...

Sign in to get your own page with links to favourite songs and more. You are just one click away...

Login with Facebook Login with Google