Front Door Song by Rubber Band

Front Door Song tab by Rubber Band

Guitar tabs

This is alibaster C. kickin it with another jammin Tab. Alright this one is
done by a big washington band called Rubber Band written by geoff Cleaver
and Erric lawton.

   h - hammer on
   p - pull off
   b - bend string up
   r - release bend
   / - slide up
   \ - slide down
   v - vibrato (sometimes written as ~)
   t - tap (with strumming hand)
   x - muted, struck string

   H=Half note
   E=Eight note

Riff 1
 H H H   HH h   H  h h h   H    H
E----------------------------------------------------------------
B----------------------------------------------------------------
G----------------------------------------------------------------
D----------------------------------------------------------------
A----------------------------------------------------------------
E-3--3--5--3--3--3--5--5--5--7--5--5--5--7--3--------------------
....Repete 5X

SOLO

eeeeeeeeeeeeeeeeeeeeeeeeeeeeeeeeeeeeeeeeeeeeeeeeeeeeeeeeeeeeeeeee
E-----------------------------------------------------------9-9-9
B----------------------------------------------------------------
G----------------------------------------------------------------
D----------------------------------------------------------------
A--------------------------------------10-10-5-4-3-2--9-9-9------
E-3--3--5--3--3--3--5--5--5--7--7-8-9----------------------------


eeeeeeeeeeeeeeeeeeeeeeeeeeeeeeeeeeeeeeeeeeeeeeeeeeeeeeeeeeeeeeeee
E-8-8-8-4-5-6-7-12----------4--------------------------------666-
B------------------9----------5----------------------------------
G--------------------8----------2-3------------------------------
D----------------------3-------------8---------------------------
A------------------------6-------------9-------------------------
E--------------------------2-------------9--9--9-10-8-5-2-0------


eeeeeeeeeeeeeeeeeeeeeeeeeeeeeeeeeeeeeeeeeeeeeeeeeeeeeeeeeeeeeeeee
E---6-9-6-9-------b--b-----------12345---------------------------
B--------------8--2--5-------------------------------------------
G--------------------------b-------------------------------------
D--------------------------6-6----------1/12----987987987--------
A----------------------------------------------------------------
E----------------------------------------------------------------


It goes like This:

guitars 1 and 2
Riff 1 five times,
guitar 1
solo,
guitars 1 and 2
riff 1 five times.



Behind that Giutar 2 Plays
in half notes
E-----0-----0----------------------------------------------------
B----------------------------------------------------------------
G----------------------------------------------------------------
D----------------------------------------------------------------
A--2--2--2--2--Over and over till the solo than start agian after
E--3--3--3--3----------------------------------------------------

Find guitar tabs and chords

A B C D E F G H I J K L M N O P Q R S T U V W X Y Z #