Log in

One click and you are in

Login with Facebook Login with Google

Why sign up and log in

Guitar Tabs Explorer
Rozebud bass tabs for Friday night funkin - breakfast b-side remix

Friday Night Funkin - Breakfast B-side Remix bass tab - Rozebud

Rozebud bass tabs for Friday night funkin - breakfast b-side remix

Bass tabs

  • Difficulty: Beginner
Tuning: Standard (E A D G)

Simple Song with just 2 Riffs repeating throughout the song


Riff 1:
  A#    G#      A#    G#
G||--------|-------------|--------|--------------||
D||--------|-------------|--------|--------------||
A||------6-|-------------|------6-|--------------|| x6
E||-6-6-6--|--4-4-4-4--4-|-6-6-6--|-4-4-4--4-4-4-||
                      |-3-|

Riff 2:
  A#    G#    A#    G#
G||--------|--------|--------|----------||
D||--------|--------|--------|----------||
A||--------|--------|--------|----------|| x2
E||-6------|-4----4-|-6----4-|-4-4--2-2-||


Riff 1:
  A#    G#      A#    G#
G||--------|-------------|--------|--------------||
D||--------|-------------|--------|--------------||
A||------6-|-------------|------6-|--------------|| x10
E||-6-6-6--|--4-4-4-4--4-|-6-6-6--|-4-4-4--4-4-4-||
                      |-3-|

Riff 2:
  A#    G#    A#    G#
G||--------|--------|--------|----------||
D||--------|--------|--------|----------||
A||--------|--------|--------|----------|| x2
E||-6------|-4----4-|-6----4-|-4-4--2-2-||


Riff 1:
  A#    G#      A#    G#
G||--------|-------------|--------|--------------||
D||--------|-------------|--------|--------------||
A||------6-|-------------|------6-|--------------|| x4
E||-6-6-6--|--4-4-4-4--4-|-6-6-6--|-4-4-4--4-4-4-||
                      |-3-|
End
  A#
G|-----------|
D|-----------|
A|-----------|
E|-6---------|

Almost there ...

Sign in to get your own page with links to favourite songs and more. You are just one click away...

Login with Facebook Login with Google