Log in

One click and you are in

Login with Facebook Login with Google

Why sign up and log in

Guitar Tabs Explorer
Royal Republic bass tabs for Tommy gun

Bass tabs

-------------------------------------------------------------------------------
			   TOMMY GUN - Royal Republic
-------------------------------------------------------------------------------

Tabbed By :perry bp
e-mail: perry bates powell@yahoo.co.uk
Tuning: EADG

Into/Verse
G|-----------------6----------------------6------------------6----8----8-8--6|
D|---8----8----8--------8----8-----8-----------8---8----8--------------------|x3
A|---------------4--------------------4--------------------4---6---6---------|
E|-6---6----6--------6----6-----6-----------6----6---6-----------------------|

G|-----------------6-----------------6-----------------6--8--8--8--8--8--8--8--|
D|--8----8----8--------8----8---8--------8---8----8----------------------------|
A|--------------4------------------4-----------------4--6--6--6--6--6--6--6--6-|
E|6---6----6--------6----6----6--------6----6----6-----------------------------|


chorus

G|------------------------------------8--8---6--|
D|----------------------------------------------|x2
A|----------6-----------------6-----------------|
E|--8-8-6-8---8-6-8/--2\--4--------6------------|

Not to sure on the chorus but this works.

Pause for guitar


verse
G|-----------------6----------------------6------------------6----8----8-8--6|
D|---8----8----8--------8----8-----8-----------8---8----8--------------------|
A|---------------4--------------------4--------------------4---6---6---------|
E|-6---6----6--------6----6-----6-----------6----6---6-----------------------|

G|-----------------6-----------------6-----------------6--8--8--8--8--8--8--8--|
D|--8----8----8--------8----8---8--------8---8----8----------------------------|
A|--------------4------------------4-----------------4--6--6--6--6--6--6--6--6-|
E|6---6----6--------6----6----6--------6----6----6-----------------------------|

chorus

G|------------------------------------8--8---6--|
D|----------------------------------------------|x2
A|----------6-----------------6-----------------|
E|--8-8-6-8---8-6-8/--2\--4--------6------------|

G|---------------------------------------------------------------------------|
D|---------------------------------------------------------------------------|
A|-4-4-4-4-4-4-4-4-4-4-4-4-4-4-4-4-6-6-6-6-6-6-6-6-6-6-6-6-6-6-6-6-----------|
E|---------------------------------------------------------------------------|

Interlude:

guitar part plays

G|-------------------|
D|-----8-----8----8--|
A|-------------------|
E|--6-----6-----6----|

wait for two 'GUN-TOMMY's
then come in with :

G|---------------------------------|
D|---------------------------------|
A|---------------------------------|
E|---6-6-6-6-6-6-6-6-6-6-6-6---6---|


Chorus

G|------------------------------------8--8---6--|
D|----------------------------------------------|x2
A|----------6-----------------6-----------------|
E|--8-8-6-8---8-6-8/--2\--4--------6------------|

bass only:

G|-----------------6----------------------6------------------6----8----8-8--6|
D|---8----8----8--------8----8-----8-----------8---8----8--------------------|x2
A|---------------4--------------------4--------------------4---6---6---------|
E|-6---6----6--------6----6-----6-----------6----6---6-----------------------|

G|-----------------6----------------------6--------------------|
D|---8----8----8--------8----8-----8-----------8---8----8------|
A|---------------4--------------------4--------------------4---|
E|-6---6----6--------6----6-----6-----------6----6---6---------|


chorus

G|------------------------------------8--8---6--|
D|----------------------------------------------|x2
A|----------6-----------------6-----------------|
E|--8-8-6-8---8-6-8/--2\--4--------6------------|

G|---------------------------------------------------------------------------|
D|---------------------------------------------------------------------------|
A|-4-4-4-4-4-4-4-4-4-4-4-4-4-4-4-4-6-6-6-6-6-6-6-6-6-6-6-6-6-6-6-6-----------|
E|---------------------------------------------------------------------------|


G|---8--8---6-|
D|------------|
A|------------|
E|------------|

Any ideas on the chorus or any thing else
ill be glad to hear them.

This is my first tab so any tips would be great.

thanks and enjoy


| / slide up
| \ slide down
| h hammer-on
| p pull-off
| ~ vibrato
| + harmonic
| x Mute note

Almost there ...

Sign in to get your own page with links to favourite songs and more. You are just one click away...

Login with Facebook Login with Google