Log in

One click and you are in

Login with Facebook Login with Google

Why sign up and log in

Guitar Tabs Explorer
The Royal Concept guitar tabs for Damn

Guitar tabs

Tuning: Standard (E A D G B E)


Intro:

e|-6/8---6---------------------------|-6s8---6-------------------------|
B|-6/8---6--9---8---6-6---8-8-8-8----|-6s8---6--9---8---6-6---8-8-8-8--|
G|----------8---8---6-6---8-8-8-8----|----------8---8---6-6---8-8-8-8--|
D|-----------------------------------|---------------------------------|
A|-----------------------------------|---------------------------------|
E|-----------------------------------|---------------------------------|


Verse 1:

e|-8---6---------------------------|-8---6-------------------------|
B|-8---6--9---8---6-6---8-8-8-8----|-8---6--9---8---6-6---8-8-8-8--|
G|--------8---8---6-6---8-8-8-8----|--------8---8---6-6---8-8-8-8--|
D|---------------------------------|-------------------------------|
A|---------------------------------|-------------------------------|
E|---------------------------------|-------------------------------|
| /   Slide up

This repeats through whole verse, then no guitar for chrous, then same repeats through second verse. The rest
of the song is just keys.

Other versions of Damn

DamnChords

Almost there ...

Sign in to get your own page with links to favourite songs and more. You are just one click away...

Login with Facebook Login with Google