Log in

One click and you are in

Login with Facebook Login with Google

Why sign up and log in

Guitar Tabs Explorer
Royal Blood bass tabs for Typhoons

Bass tabs

Tuning: C# Tuning (C# F# B E)


Verse 1:

E |---------------------------------------------------------------------------|
B |---------------------------------------------------------------------------|
F#|-----------10-10-10-10---7-7-7-7---x-x-5-7-7-7-5-7-7-7---------------------|
C#|-0-0-0-0-------------------------------------------------------------------|

Bridge:

E |---------------------------------------------------------------------------|
B |---------------------------------------------------------------------------|
F#|---------------------------------------------------------------------------|
C#|-5-5-5-5-5-5-5-5-5-5-5-5-5-5-5-5-3-3-3-3-3-3-3-3-3-3-3-3-3-3-3-3-0-0-0-0-0-|

E |---------------------------------------------------------------------------|
B |---------------------------------------------------------------------------|
F#|---------------------------------------------------------------------------|
C#|-0-0-0-0-0-0-0-0-0-0-0-0-0-0-0-0-0-0-0-0-0-0-0-0-0-------------------------|

E |---------------------------------------------------------------------------|
B |---------------------------------------------------------------------------|
F#|-x-x-5-7-7-7-5-7-7-7-------------------------------------------------------|
C#|---------------------------------------------------------------------------|


Chorus:

E |------------------------------------------------------------------7--------9--9p7-9p7---|
B |-10-10-10-9-7-5--5-6-7-7--7-6-5-------------10-10-10-9-7-5--5-6-7----5-6-7------------7-|
F#|--------------------------------7--7-7-6-5----------------------------------------------|
C#|----------------------------------------------------------------------------------------|


Post-Chorus:

E |---------------------------------------------------------------------------|
B |----------------------------------------------------------5-----5----------|
F#|-----------------------5h7-7-5h7-7--------------------------7-5---7-5------|
C#|-3-4-5-5-5-6-6-6-7-7-7--------------3-4-5-5-5-6-6-6-7-7-7------------------|


************************************

| x  Dead note
| h  Hammer-on
| p  Pull-off

************************************

Almost there ...

Sign in to get your own page with links to favourite songs and more. You are just one click away...

Login with Facebook Login with Google