Listen To Your Heart by Roxette

Listen To Your Heart tab by Roxette

Guitar tabs

LISTENT TO YOUR HEART
                      By Roxette


Title: Listen to your heart
Artist: Roxette
Transcriber: Matt Laubscher
Email: [email protected]

Sounds ok. Use with Marcus Svensson's chords below.Hats off.

e|-----------5--3-3s2------2---------2-5-3----------------------------|
G|-0~--0--3-----------5-3----3-----3-------5-0h2h3-5-3-2-0------------|
B|-2s4---------------------------4-------------------------------------|
D|-----------------------------4------------------------------------|
A|-----------------------------------------------------------------|
E|-----------------------------------------------------------------|

e|----7-10-17-15-15s14-------14-------------14-17s15------------------------|
G|0~-------------------17-15----15-------15----------17-12h14h15-17-15s14-12|
B|------------------------------------16------------------------------------|
D|---------------------------------16--------------------------------|
A|-----------------------------------------------------------------|
E|5s7--------------------------------------------------------------|


Title: Listen to your heart
Artist: Roxette
Transcriber: Marcus Svensson
Email: [email protected]

Ok, since roxette is the coolest band ever i must make at least one tab of
them and here is my favorite:

VERSE:

Bm G A  * 3
G Em

Chorus:

Bm G D A *2
D A G D
Bm G D

Then play verse again and then chorus and fade,


Have Fun

Other versions of Listen To Your Heart

Alternative guitar chords and tabs for Listen To Your Heart by Roxette

Find guitar tabs and chords

A B C D E F G H I J K L M N O P Q R S T U V W X Y Z #