Listen To Your Heart  by Roxette

Listen To Your Heart chords by Roxette (Ver. 2)

Guitar chords with lyrics

Intro:
Bm G A
Bm G A
Bm G A
Bm G A



Verse:

Bm         G       A       Bm
 I know there’s something in the wake of your smile
     G        A      Bm
I get a notion from the look in your eyes
       G        A      Bm
You’ve built a love but that love falls apart
              G      Em
Your little piece of heaven, turns too dark

Chorus:

        Bm  G
Listen to your heart
      D      A
When he’s calling for you
        Bm  G
Listen to your heart
        D       A
There’s nothing else you can do
     D        A
I don’t know where you’re going
  G       D
And I don’t know why
          Bm  G
But listen to your heart
    A          Bm
Before  you tell him goodbye

Solo: Bm G A Bm
    Bm G A Bm
    D A G D
    Bm G A

E|----------------------------------------------------|
B|-/12~~---12/----------------------------------------|
G|------------------------------9b11-7h9--------------|
D|---------------------------------------9~-----------|
A|---------10/------5b6r5-----------------------------|
E|----------------------------------------------------|

E|------------------------------12b14-10-12b14r12-----|
B|---------------------10-7~--------------------------|
G|-----6h7p6---------7--------------------------------|
D|-7-9-------7-----7----------------------------------|
A|-------------9-7------------------------------------|
E|----------------------------------------------------|

E|-12p11p10--------------------21-21b22r21--19-19-----|
B|----------12-----7----------------------------------|
G|---------------------7h9p7~-------------------------|
D|--------------/9---9--------------------------------|
A|----------------------------------------------------|
E|----------------------------------------------------|

E|-17/15-14--12h14-10-10h12-10-9-7--------------------|
B|----------------------------------------------------|
G|----------------------------------------------------|
D|----------------------------------------------------|
A|----------------------------------------------------|
E|----------------------------------------------------|

Bm   G            A       Bm
 Sometimes you wonder if this fight is worthwhile
       G        A      Bm
The precious moments are all lost in the tide
       G     A         Bm
They’re swept away and nothing is what it seems
             G      Em
The feeling of belonging  to your dreams

Chorus:

        Bm  G
Listen to your heart
      D      A
When he’s calling for you
        Bm  G
Listen to your heart
        D       A
There’s nothing else you can do
     D        A
I don’t know where you’re going
    G      D
And I don’t know why
          Bm  G
But listen to your heart
    A          Bm
Before  you tell him goodbye

Solo: Bm G A Bm
    Bm G A Bm
    D A G
    D Bm G A

Bridge:

E
 And there are voices

That want to be heard
C#m
 So much to mention

But you can’t find the words
B
 The scent of magic
   A
The beauty that’s been
B
 When love was wilder
C#
 Than the wind

Chorus:

        D#m B
Listen to your heart
      F#     C#
When he’s calling for you
        D#m B
Listen to your heart
        F#      C#
There’s nothing else you can do
     F#        C#
I don’t know where you’re going
  B       F#
And I don’t know why
          D#m B
But listen to your heart
    C#
Before

        D#m B
Listen to your heart
      F#     C#
When he’s calling for you
        D#m B
Listen to your heart
        F#      C#
There’s nothing else you can do
     F#        C#
I don’t know where you’re going
  B       F#
And I don’t know why
          D#m B
But listen to your heart
    C#
Before
         D#m
You tell him goodbye

(D#m B F# C#)
(D#m B F# C#)
(D#m B F# C#)
(D#m B F# C#)

Chorus:

           B C# D#m
Listen to your heart
           B C# D#m
Listen to your heart
           B C# D#m
Listen to your heart

           B C# D#m
Listen to your heart
           B C# D#m
Listen to your heart
           B C# D#m

Other versions of Listen To Your Heart

Alternative guitar chords and tabs for Listen To Your Heart by Roxette

Find guitar tabs and chords

A B C D E F G H I J K L M N O P Q R S T U V W X Y Z #